Ozzy Osbourne - Diggin Me Down tab

Hey guys sorry i dont know the whole song but its something to get yall started, i 
this all by ear so it may not be exactly how gus g does it but its close i think... this is 
first tab so email me for pointers or if you know the parts im missing, thanks alot!

-------------------------------------------------------------------------------
			     Diggin' Me Down - Ozzy Osbourne
-------------------------------------------------------------------------------
Tabbed by:Chris Hopkins
Email:Futureguitarist15@yahoo.com

Tuning:Standard: Eadgbe
Sorry no intro, starting at 1:03
Slight Distortion                             Full Distorion
e|---------------------------------------------------------------------------|
B|---------------------------------------------------------------------------|
G|---------------------------------------------------------------------------|
D|-------(feedback)----------(More feedback)----------------5\-3/-5\-3-------|
A|--5------------------5-------------------------5----------5\-3/-5\-3-------|
E|5---5-4~-----------5---5-4~------------------5---5-4~-----3\-1/-3\-1-------|

e|---------------------------------------------------------------------------|
B|---------------------------------------------------------------------------|
G|----------------x--x-------------------------------------------------------|
D|-------------2--4--5--------------------------5\-3/-5\-3-------------------|
A|--5----------2--4--5---------------5----------5\-3/-5\-3-------5-----------|
E|5---5-4~-----0--2--3--4~---------5---5-4~-----3\-1/-3\-1-----5---5-4~------|
(Slight bend with vibrato)

e|---------------------------------------------------------------------------|
B|---------------------------------------------------------------------------|
G|x--x--x--------------------------------------------------------------------|
D|2--4--5-----------xxxx--xxxx--xxxx----xxxx--xxxx--xxxx--\------------------|
A|2--4--5--PH-------2222--2222--2222----2222--2222--2222--\------------------|
E|0--2--3--4~-------0000--0000--0000----0000--0000--0000--\------------------|
           Vibrato                                   Hand slide with fingers
                                       Repeats through all of 1st verse
e|---------------------------------------------------------------------------|
B|---------------------------------------------------------------------------|
G|-------------------------x--x--x-------------------------------------------|
D|xxxx--xxxx--xxxx----xxxx-2--4--5-------------------------------------------|
A|2222--2222--2222----2222-2--4--5--PH---------------------------------------|
E|0000--0000--0000----0000-0--2--3--4~---------------------------------------|
  Pre-Chorus               Chorus
e|---------------------------------------------------------------------------|
B|---------------------------------------------------------------------------|
G|----------x--x--x--------------x-x-x---------------------------------------|
D|----------2--4--5---------2----2-2-2--8----x--8----5-----------------------|
A|--5-------2--4--5--PH-----2----2-2-2--8----8--8----5-----------------------|
E|5---5-4~--0--2--3--4~-----0----0-0-0--6----6--6----3----4p2p0-4p2p0-4~-----|

e|---------------------------------------------------------------------------|
B|---------------------------------------------------------------------------|
G|--------------------------------------x--x--x------------------------------|
D|------------5\-3/-5/-3----------------2--4--5------------------------------|
A|--5---------5\-3/-5/-3------5---------2--4--5--PH--------------------------|
E|5---5-4~----3\-1/-3/-1----5---5-4~----0--2--3--4~--------------------------|

e|---------------------------------------------------------------------------|
B|---------------------------------------------------------------------------|
G|---------------------------------------------------------------------------|
D|7/-9--x-x--7/-9--x-x-x-x-x-x--7/-9--x-x--7/-10--7/-10----------------------|
A|7/-9--7-7--7/-9--7-7-7-7-7-7--7/-9--7-7--7/-10--7/-10----------------------|
E|5/-7--5-5--5/-7--5-5-5-5-5-5--5/-7--5-5--5/-8---5/-8-----------------------|
Repeat once then same riff slid 2 bars up hold last note then back to verse (2nd half of 
is different from first half,
 i cant find the rythm but its some sort of picking rythm with a muted low E power chord)
then chorus sorry no solo even though it is amazing im not that good at playing by ear,
 then the rest of the song just repeats everything above just listen for the order,
 you should be able to figure it out, email me and let me know what you think thanks alot!

************************************

| /   slide up
| \   slide down
| h   hammer-on
| p   pull-off
| ~   vibrato
| +   harmonic
| x   Mute note
| b   Bend
| pb  Pre-bend
| br  Bend release
| pbr Pre-bend release
| brb Bend release bend

************************************
Tap to rate this tab
 
# A B C D E F G H I J K L M N O P Q R S T U V W X Y Z