Song name
# A B C D E F G H I J K L M N O P Q R S T U V W X Y Z

Ozzy Osbourne - Soul Sucker tab

-------------------------------------------------------------------------------
			     SOUL SUCKER - Ozzy Osbourne
-------------------------------------------------------------------------------
Tabbed by: ironmanben
Email: bentrooper@gmail.com

Tuning: db Ab E B Gb B

Basically take the ordinary Drop D tuning, and tune it 2 & 1/2 steps down.

guitar 1 - Gus G. - rhythm
guitar 2 - Gus G. - lead
guitar 3 - Gus G. - solo only

intro:
(both guitars:)
db|----------------------------------------|
Ab|-15-15-15-15-15-15-15-15-15-15-15-15-15-|
E |----------------------------------------|
B |----------------------------------------|
Gb|----------------------------------------|
B |----------------------------------------|

main riff:
db|-------------------|
Ab|-------------------|
E |-------------------|
B |---------------0-0-|
Gb|---------------0-0-|
B |-3^-----3^-----0-0-|
--|               x x |
db|-------------------|
Ab|-------------------|
E |-------------------|
B |-3------3------0-0-|
Gb|-3------3------0-0-|
B |-3------3------0-0-|
                  x x

verse:
| x3                | x1                |
|-------------------|-------------------|
|-------------------|-------------------|
|-------------------|-------------------|
|---------------0-0-|---------------0-0-|
|---------------0-0-|---------------0-0-|
|-3^-----3^-----0-0-|-3^-----3^-----0-0-|
|               x x |               x x |
|-------------------|-------------------|
|-------------------|-------------------|
|-------------------|-------------------|
|-------------------|-------------7-7-7-|
|-------------------|-------------5-5-5-|
|-------------------|-------------0-0-0-|
                                    


chorus:
(guitar 1:)
|--------------------------------------------------------------------|
|--------------------------------------------------------------------|
|--------------------------------------------------------------------|
|-0-0-0-0-0-0-0-0-0-8-8-8-8-10-10-5-0-5-5-5-5-0-5-0-3-5-5-0-3-3------|
|-0-0-0-0-0-0-0-0-0-8-8-8-8-10-10-5-0-5-5-5-5-0-5-0-3-5-5-0-3-3------|
|-0-0-0-0-0-0-0-0-0-8-8-8-8-10-10-5-0-5-5-5-5-0-5-0-3-5-5-0-3-3------|

|----------------------------------------------------------------------|
|----------------------------------------------------------------------|
|----------------------------------------------------------------------|
|-0-0-0-0-0-0-0-0-0-8-8-8-8-10-10-5-0-5-5-5-5-0-5--------------5-3-----|
|-0-0-0-0-0-0-0-0-0-8-8-8-8-10-10-5-0-5-5-5-5-0-5--------------5-3-----|
|-0-0-0-0-0-0-0-0-0-8-8-8-8-10-10-5-0-5-5-5-5-0-5-0---5br(6)-3-5-3-----|

chorus:
(guitar 2:)
(tremolo pick all but the last note.)
|-------------------------------------------------------------------------|
|-10-10-10-10-10-10-10-10-10-11-11-11-11-11-11-11-11-13-13-13-13-13-13-13-|
|-------------------------------------------------------------------------|
|-------------------------------------------------------------------------|
|-------------------------------------------------------------------------|
|-------------------------------------------------------------------------|

|-----------------------------|
|-13-15-15-15-15-15--6--------|
|--------------------8^(10)---|
|-----------------------------|
|-----------------------------|
|-----------------------------|


post-chorus:
|---------------------------------|
|---------------------------------|
|-----------3---------------5-----|
|-0-0-3---0-3-----0-0-3---0-5-----|
|-0-0-3---0-1-----0-0-3---0-3-----|
|-0-0-3^--0-------0-0-3^--0-------|
| x x     x       x x     x       |
|---------------------------------|
|---------------------------------|
|---------------------------------|
|-0-0-3---0-8-----0-0-3---0-10----|
|-0-0-3---0-8-----0-0-3---0-10----|
|-0-0-3^--0-8-----0-0-3^--0-10----|
  x x     x       x x     x       



bridge intro riff 1:
|----------------------------------|
|----------------------------------|
|----------------------------------|
|--------------------5-3---5/7-7---|
|-3h5-5-3h5-5------------5-3/5-5---|
|-------------3^-------------------|
|                                  |
|----------------------------------|
|----------------------------------|
|----------------------------------|
|--------------------5-3-5-5/7-7---|
|--------------------------3/5-5---|
|----------------------------------|


bridge intro riff 2:
|-------------------------------|
|-------------------------------|
|-------------------------------|
|-------------------------------|
|-3h5-5-3h5-5-3h5-5-3h5-5-3h5-5-|
|-------------------------------|
|                               |
|-------------------------------|
|-------------5h6-6-5h6-6-5h6-6-|
|-5h7-7-5h7-7-5h7-7-5h7-7-5h7-7-|
|-------------------------------|
|-------------------------------|
|-------------------------------|


bridge riff 1:
|---------------------------------|
|---------------------------------|
|-7-----------------5-5-----8-8---|
|-7---0-0-0-0-0-0-0-5-5-----8-8---|
|-5---0-0-0-0-0-0-0-3-3-----6-6---|
|-----0-0-0-0-0-0-0---------------|
|     x x x x x x x               |
|---------------------------------|
|---------------------------------|
|-7-----------------5-------8-----|
|-7---0-0-0-0-0-0-0-5-------8-----|
|-5---0-0-0-0-0-0-0-3-------6-----|
|-----0-0-0-0-0-0-0---------------|
      x x x x x x x


bridge riff 2:
|---------------------------------|
|---------------------------------|
|---------------------------------|
|-3---3-3-3-3-3-3-3-1-1-----4-4---|
|-3---3-3-3-3-3-3-3-1-1-----4-4---|
|-3---3-3-3-3-3-3-3-1-1-----4-4---|
|     x x x x x x x               |
|---------------------------------|
|---------------------------------|
|---------------------------------|
|-3---3-3-3-3-3-3-3-1-------4-----|
|-3---3-3-3-3-3-3-3-1-------4-----|
|-3---3-3-3-3-3-3-3-1-------4-----|
      x x x x x x x


pre-solo riff:
(both guitars:)
|---------------------------|
|---------------------------|
|---------------------------|
|-3----4----6----8----9--10-|
|-3----4----6----8----9--10-|
|-3----4----6----8----9--10-|



guitar solo rhythm:
|----------------------------------|
|----------------------------------|
|----------------------------------|
|-0---0-0-0---0-0-0---0-0-0--------|
|-0---0-0-0---0-0-0---0-0-0-3^-----|
|-0---0-0-0---0-0-0---0-0-0--------|
| x   x x x   x x x   x x x        |
|----------------------------------|
|----------------------------------|
|---------------------------5------|
|-7---0-0-0---0-0-0---0-0-0-5------|
|-5---0-0-0---0-0-0---0-0-0-3------|
|-----0-0-0---0-0-0---0-0-0--------|


I don't know the solo to this.  I'll add it eventually.  It is played by guitar 3.

Order:
intro
main riff x4
verse
main riff x4
chorus 
post-chorus x2
main riff x2
main riff x8
chorus 
post-chorus x2
bridge intro riff 1 x3
bridge intro riff 2 x1
bridge riff 1 x8
bridge riff 2 x3
pre-solo riff
guitar solo/guitar solo rhythm x
main riff x2
chorus 
post-chorus x2




************************************

| /   slide up
| \   slide down
| h   hammer-on
| p   pull-off
| ~   vibrato
| +   harmonic
| x   Mute note
| ^   Bend
| pb  Pre-bend
| br  Bend release
| pbr Pre-bend release
| brb Bend release bend

************************************
Tap to rate this tab
 
# A B C D E F G H I J K L M N O P Q R S T U V W X Y Z