Ozzy Osbourne - Diggin Me Down tab

-------------------------------------------------------------------------------
			     Diggin Me Down - Ozzy Osbourne
-------------------------------------------------------------------------------
Tabbed by: rooster09
Email:

Tuning: 2 WHOLE STEPS DOWN
Low to High: C-F-A#-D#-G-C

An excellent intro to a great song, let me know
what you guys think

e|--------------0----------------------0-----------------------0-------------|
B|-----------8-----8----------------7-----7-----------------6-----6----------|
G|--------9----------9-----------8-----------8-----------7----------7--------|
D|----10---------------10-----9-----------------9-----8----------------8-----|
A|-0-----------------------0-----------------------0-------------------------|
E|---------------------------------------------------------------------------|

e|-------------0-------------------------0------------------------0----------|
B|----------0-----0-------------------8-----8------------7-----------7-------|
G|-------5-----------5-------------9-----------9------------8-----------8----|
D|----7-----------------7------10-----------------10-----------9-----------9-|
A|-0------------------------0-------------------------0----------------------|
E|---------------------------------------------------------------------------|

e|-------------0-----------------------0--------|-----------------------0----|
B|----------6-----6-----------------0-----0-----|-0------------0--2--4-------|
G|-------7-----------7-----------5-----------5--|-------2--------------------|
D|----8-----------------8-----7-----------------|----4-----4-----------------|
A|-0-----------------------0--------------------|-2--------------------------|
E|----------------------------------------------|----------------------------|

e|-2-------2--0---------|-3-----3----2----0----|-0--------0------------------|
B|----------------------|----------1----1----1-|-------0----4h5p4p0-----0----|
G|------0----------0----|----0-----------------|-----------------------------|
D|----5----------5---5--|----------------------|----4----------------4-------|
A|-3----------0---------|-0--------------------|-2---------------------------|
E|----------------------|----------------------|-----------------------------|

e|----------------------0--2-------2--0--------0--2-------2--0----------------|
B|-------0-----0--2--4---------------------------------1--------1---1---------|
G|------------------------------0--------0-----------0------------0-----------|
D|----4----4------------------5------------5----------------------------------|
A|-2-----------------------3----------0-----------4---------------------------|
E|-----------------------------------------------------------0----------------|

e|-3----3----2----0----3----3------2-----0-----------------------------------|
B|--------1---1-----1-----------1-----1--------------------------------------|
G|---0--------------------0--------------------------------------------------|
D|---------------------------------------------------------------------------|
A|---------------------0-----------------------------------------------------|
E|---------------------------------------------------------------------------|

e|--------------------------------------------0-------7----------------------|
B|-----10--12-----8--10----7--9----7--8----------7---------------------------|
G|-12---------11--------9-------9---------8----------------------------------|
D|---------------------------------------------------------------------------|
A|---------------------------------------------------------------------------|
E|-12---------10--------9-------8---------7----------------------------------|

e|--0--0--0---0--------------------------------------------------------------|
B|--0--0--0---0--------------------------------------------------------------|
G|--x--x--x---3--------------------------------------------------------------|
D|--2--2--2---2--------------------------------------------------------------|
A|--2--2--2---2--------------------------------------------------------------|
E|--0--0--0---0--------------------------------------------------------------|


************************************

| /   slide up
| \   slide down
| h   hammer-on
| p   pull-off
| ~   vibrato
| +   harmonic
| x   Mute note
| b   Bend
| pb  Pre-bend
| br  Bend release
| pbr Pre-bend release
| brb Bend release bend

************************************
Tap to rate this tab
 
# A B C D E F G H I J K L M N O P Q R S T U V W X Y Z