Song name
# A B C D E F G H I J K L M N O P Q R S T U V W X Y Z

Ozzy Osbourne - See You On The Other Side tab

(/) Slide Up  (\) Slide Down  (h) Hammer On  
(p) Pull Off  (b) Bend (r) Release (v) Vibrato (*)Palm Mute
           Verse
Eb|--0-----------------------------------------------------------------|
Bb|-----3--------------------------------------------------------------|
Gb|--------0-----------------------------0--------------------------0--|
Db|-----------4-----0-----2-----4--------------0-----2-----4-----------|
Ab|--------------------2-----------2--------------2-----------2--------|
Eb|--------------3-----------3--------3-----3-----------3--------3-----|

|-----------------------------------------------------------|
|-----------------------------------------------------------|
|--------------------------0-----------------------------0--|
|-----0-----2-----4--------------------0-----2-----4--------|
|--------2-----------2--------0--2--3-----3-----3-----3-----|
|--0-----------3--------3-----------------------------------|


                                                                          Chorus
|----------------------------   -0--3--3-----3-----------0--3--3--|
|----------------------------   -3--3--3--3-----3--------3--3--3--|
|--------------------------0-   -2--0--0-----------0--0--2--0--0--|
|-----0-----2-----4----------   -0--2--0-----------------0--2--0--|
|--------2-----------2-------   -0--3--2-----------------0--3--2--|
|--3-----------3--------3----   -------3-----------------------3--|

|---------------------0--3--3------|
|---------------------3--3--3------|
|---------------------2--0--0------|
|---------------------0--2--0------|X(pick scrape these 3 strings)
|--3*--3*--3\5--5--5/3--0--3--2--X-|
|--1*--1*--1\3--3--3/1--------3--X-|

|--------------0-----------------------|
|-----------------3--------------------|
|--2--4--5-----------0--0--2--4--5-----|
|--2--4--5--5--------------2--4--5--5--|
|--0--2--3--5--------------0--2--3--5--|
|-----------3-----------------------3--|


Solo
|----------------------------------------------|
|----------------------------------------------|
|-----------------------------------------12v--|
|---------------------12--12------12h14--------|
|----------10h12\14----------14----------------|
|--10h12---------------------------------------|

|--------------------------------|
|--------------------------------|
|--------------------------12v---|
|----------12------12h14---------|
|--12h14------14-----------------|
|--------------------------------|


|-----------------------------------------------|
|--15-------------------------------------------|
|--14b16--12h14p12--14v--14p12--12v----------12-|
|-----------------------------------12h14-------|
|-----------------------------------------------|
|-----------------------------------------------|

|-----------------------------------------------------------------------|
|--15b17--15b17--15v----------------------------------------------------|
|---------------------14p12------12--14b16v--14b16v--14b16v--14p12------|
|----------------------------14-------------------------------------14--|
|-----------------------------------------------------------------------|
|-----------------------------------------------------------------------|

|--15--12----------------------------------|
|----------15--12--------------------------|
|------------------14----------------------|
|----------------------14--12--------------|
|------------------------------14--12--10--|
|------------------------------------------|

|-------------------------------------------------------17p15------15--|
|--------------------------------------------------15---------17-------|
|-----------------------------------------------14---------------------|
|-------------------------------12------12--14-------------------------|
|---------10---------12--12\14------14---------------------------------|
|--10h12------10h12----------------------------------------------------|

|--17b19--17b19b17--15----------15--20--19--17---------15---------------------|
|-----------------------15h17------------------18b20------18--15--------------|
|------------------------------------------------------------------17--15--15-|
|-----------------------------------------------------------------------------|
|-----------------------------------------------------------------------------|
|-----------------------------------------------------------------------------|


Bridge Part 1 (Play 2x)
|-----------------------------------3-----------------------------------------|
|--------3-----------3-----------------3-----------3-----------3--------------|
|-----------0-----0-----0-----------------0-----------0-----0-----0--------0--|
|-----2--------2-----------------0--------------2--------2--------------0-----|
|--3--------------------------2--------------3--------------------------------|
|--------------------------3-----------------------------------------3--------|

|-------------|
|-------------|
|--------2----|
|-----0-------|
|-------------|
|--2----------|


Bridge Part 2 (play 3x)
|------------------|
|------------------|
|------------------|
|------------------|
|--9--9/7--7/5--5--|
|--7--7/5--5/3--3--|


 Bridge Part 3 (play 16x)

|--------------|
|--------------|
|--------------|
|--------------|
|--7--7*--7*---|
|--5--5*--5*---|


Ending (play until fade out)
|--------------------------------------------------------|
|--------------------------------------------------------|
|--------------------------0--------------------------0--|
|-----0-----2-----4--------------0-----2-----4-----------|
|--------2-----------2--------------2-----------2--------|
|--3-----------3--------3-----3-----------3--------3-----|

|--------------------------------------------------------|
|--------------------------------------------------------|
|-----------------------------------------------------0--|
|-----0-----2-----4--------0-----0-----2-----4-----------|
|--------2-----------2--------------2-----------2--------|
|--0-----------3--------3-----0-----------3--------3-----|
Tap to rate this tab
 
# A B C D E F G H I J K L M N O P Q R S T U V W X Y Z