Song name
# A B C D E F G H I J K L M N O P Q R S T U V W X Y Z

Ozzy Osbourne - Dreamer tab

-------------------------------------------------------------------------------
 	DREAMER (Juergen Schenk composition)  - Ozzy Osbourne
-------------------------------------------------------------------------------
Tabbed by: Wouter
Email: Wootah_@hotmail.com

Tuning: Capo on first fret




As composed by Juergen Schenk, all credits go to him (and ozzy of course)! 



This song consists of a lot of repitition, so it's basically repeating these
units in the following order:

1 2 2 3 3 2 3 3 1

I left out some notes he uses to glue the segments together, because they'd 
unnecessarily complicate the tab. They're easily picked out in the youtube 
video version played by Henry Weidemann. Watch that for the rythm as well.

This being my first tab, all comments and critiques are appreciated!  



UNIT 1:

e|------4-4-2-2-1-1-----1-1|----|
B|------------------4-4----|----|        
G|------1---1---1-----1----|----|
D|-------------------------|-2x-|
A|----4---------------4----|----|
E|--4----------------------|----|



UNIT 2:

e|--------------------------------|---------------------------------|
B|-------------------1------------|-------------------1-------------|
G|-1---1---1---1---3---3----------|-1---1---1---1---1---3---3---3---|
D|---3---3---3---3-------3---3---3|---3---3---3---3-------3---3---3-|
A|-4-----------4---1-------1---1--|-4-----------4-------1-----------|
E|--------------------------------|---------------------------------|



e|---------------------1-----------------------|---------------------------|
B|---2---2---2---2---4---4---------------------|-2-2-2--1-1-1--------------|
G|-----3---3---3---3-------3---3---3-3p1-1-1-1-|-1-1-1--1-1-1--------------|
D|-------------------1-------1---1-------------|---------------------------|
A|---------------------------------------------|---------------------------|
E|-4-2-------2---------------------------------|-4------4------------------|



UNIT 3:

e|--------------------------------------------------------------------------|
B|--------4-----2-----2---1-1h2--1------------------------------------------|
G|-1-1-1----1-----1-----1-------------1-------------------------------------|
D|------------3-----3---------------3---------------------------------------|
A|--------4-----4---------1-----(1)-----3---3---3---3---3---3---3---3-------|
E|-----------------------------------(1)--1---1---1---1---4---4---4---4-----|


Wouter


************************************

| /   slide up
| \   slide down
| h   hammer-on
| p   pull-off
| ~   vibrato
| +   harmonic
| x   Mute note
| b   Bend
| pb  Pre-bend
| br  Bend release
| pbr Pre-bend release
| brb Bend release bend

************************************
Tap to rate this tab
 
# A B C D E F G H I J K L M N O P Q R S T U V W X Y Z