Song name
# A B C D E F G H I J K L M N O P Q R S T U V W X Y Z

Ozzy Osbourne - Suicide Solution Live tab

ok this version of suicide solution is from the diary of a madman tour minneapolis 
concert. its a soundboard recording now the poor quality of the recording has made it 
difficult to tab so its not 100% correct...enjoy

legend
h = hammer-om
p = pull-off
\ = slide down
()= killswitch
* = pinch harmonic
b = bend
^ = pickslide
s = slide

|-----------^^^------------------3-----------------3-------12*--|
|-----------^^^^^^---------------3-----------------3------------|
|--------------^^^^^^--------2-5-0-2-5-0-2-----2-5-0-2-5-0------|
|-0---------------^^^^^^-----2-5-0-2-5-0-2-----2-5-0-2-5-0------|
|--------------------^^^-----0-----0-----0-----0----------------|
|------------------------12\-------0--------3b-0----------------|

|-----------------|3x  |-------3--|
|-----------------|    |-------3--|
|-2--5-0-2-5-0-2--|    |-9-7-5-0--|
|-2--5-0-2-5-0-2--|    |-9-7-5-0--|
|-000----------0--|    |----------|
|-----------------|    |-------3--|

|-------------3-----|x2
|-------------3-----|
|-2---5---5-7-0---2-|
|-2---5---5-7-----2-|
|-0-0---0---------0-|
|--------------3b4--|

|-----------------------|x4
|-----------------------|
|-----4-----6-----7-7-6-|
|-----4-----6-----7-7-6-|
|-0-2---0-2---2-4-------|
|-----------------------|

fill-ins in order
|-----------|-------------|--------------------|
|-----------|-------------|--------------------| 1st verse
|-----------|-------------|--------------------|
|-----------|-------------|--------------------|
|-5-5p4p3b4-|-3h5-3h5p3b4-|------3h4h5-----3b5-|
|-----------|-------------|-3h4h5-----3h4h5----|

|-----------|---------------------|---------| 2nd verse
|-----------|---------------------|---------|
|-5*h7-7p5*-|---------------------|-7s8s7s5-|
|-----------|-----------------5b7-|---------|
|-----------|------3h4h5-5h6h7----|-5s6s5s3-|
|-----------|-3h4h5---------------|---------|

|-------|-----17--------------------|-----------------------| 3rd verse
|-------|---17--20p17h19p17---------|-----------------------|
|-5s6s5-|-19---------------20p19p17-|-----------------------|
|-------|---------------------------|-----------------5h6h7-|
|-3s2s3-|---------------------------|------3h4h5-5h6h7------|
|-------|---------------------------|-3h4h5-----------------|

interlude
|-----------------------------3----------------------------|
|-----------------------------3----------------------------|
|-2------------------5---4----0--(2)-(2)-(2)-2-4-5--7--0--2|
|-2------------------5---4----0--(2)-(2)-(2)-2-4-5--7--0--2|
|-0------------------------------(0)-(0)-(0)--------------0|
|-0---------------------------3----------------------------|

|--------------------------------------------------------|
|--------------------------------------------------------|
|-----5---------------4---------------0----------------2-|
|-----5---------------4---------------0------------------|
|-0-2--0-0-0-0-0-0-0-0-0-0-0-0-0-0-0-0-0-0-0-0-0-0-0-0-0-|
|--------------------------------------------------------|

|-------------------------------------|
|-------------------------------------|
|------------------5-----------5p4-7-0|
|------------------5--------5h7----7-0|
|-0-0-0-0-0-0-0-0-0-0-0-0-0-----------|
|-------------------------------------|

randy actually surprisingly had no fills for the rest of the song so i dont even think 
this is randy but idk i didnt go to the concert so heres the solo

|------------3------------3--| clean dist.
|-10\-----1--3--3------3--3--|
|--9\-----0--0--2------2--0--|
|--7\-----2--0--0------0--0--|
|---------3-----0--12\-------|
|----------------------------|

|----------------------------------|
|----------------------------------|
|----------------------------------|
|-2p000---------------------2------|
|------2p0000h2p00------0000-0000--|
|-----------------3--------------3-|

|-------------------------22b24 21p18(trill)18p15(trill)15p12(trill)11|
|---------------5*----------------------------------------------------|
|-5---------------------5*--------------------------------------------|
|-------4------------5*-----------------------------------------------|
|---------------------------------------------------------------------|
|-------------3-------------------------------------------------------|

|------17-----17-----17h20p17--17-----------------------------------------|
|-17h20--17h20--17h20--------20--20p17--17h20--17h20--17h20p17------------|
|-------------------------------------19-----19-----19--------18p15h17p15-|
|-------------------------------------------------------------------------|
|-------------------------------------------------------------------------|
|-------------------------------------------------------------------------|

|--------------------22-22-22-22-17-17-17-17-------------15-------|
|--------------------------------------------15-15-15-17----17-17-|
|------17p15------------------------------------------------------|
|-17p15---------12------------------------------------------------|
|-----------------------------------------------------------------|
|-----------------------------------------------------------------|

|---17----18----19----20----21-----20b22b20-20p17h19p17--17------------|
|-----16----17----18----19----20-----------------------20--20p17h18p17-|
|-15----15----16----17----18----19-------------------------------------|
|----------------------------------------------------------------------|
|----------------------------------------------------------------------|
|----------------------------------------------------------------------|

|--------------------------------------------------|
|---17---------------------------------------------|
|-20--20p17h19p17--17h19h20p19p17--17h19b21b19p17--|
|----------------19--------------19----------------|
|--------------------------------------------------|
|--------------------------------------------------|

|---------------------------------------|
|---------------------------------------|
|---------------------------------------|
|-10--------9-------8-------7------12---|
|---12p10h12-11p9h11-10p8h10-9p7h9-10---|
|---------------------------------------|

well thats it its set up the same way as the tribute version its just 10 times better 
hope you like it the solo 100% correct im certain of it
Tap to rate this tab
 
# A B C D E F G H I J K L M N O P Q R S T U V W X Y Z