Ozzy Osbourne - Dreamer tab

This is my first tab but I think i came out quit well ;D

This is a very easy solo that sounds awesome! ;D

Listen to the song, then it will be very easy to figure out when to play the notes.

The chords above are for the rythm part. The chords in ( ) are for playing with a capo 
on 1th fret.

Standard tuning btw ;)

       /  -  Slide up (if there is a - before the /, the slide from a random fret but if 
there is a fret number before, slide from that fret)
       \  -  Slide down (same as above)
       b() - Bend to the fret in ()
       r  -  Release your bend to the starting fret
       ~  -  Hold at the bended position

   C#                            #Am
  (C)                            (Am)
e|-----------------------------|----------------------------|
B|-----------------------------|----------------------------|
G|----------6--8--8b(9)r--6--8-|----------------------------|
D|------/6---------------------|--/8-------------------666\-|
A|-----------------------------|----------------------------|
E|-----------------------------|----------------------------|


   C#                             #Am
  (C)                             (Am)
e|----------------------4--6-|-------------------------------------|
B|----------------6--7-------|--4b(6)~~~~~~~~~~~~~~~~~~r-4b(6)r \2-|
G|----------6--8-------------|-------------------------------------|
D|------/6-------------------|-------------------------------------|
A|---------------------------|-------------------------------------|
E|---------------------------|-------------------------------------|

   C#                                  #Am
  (C)                                  (Am)
e|-------------------13--14--16--18-|--------------------------------------------|
B|-----------14--16-----------------|--16b(18)~~~r--16b(18)r-16b(18)r--16b(18)r--|
G|------/13-------------------------|--------------------------------------------|
D|----------------------------------|--------------------------------------------|
A|----------------------------------|--------------------------------------------|
E|----------------------------------|--------------------------------------------|

   Fm                               #G                #Gsus4     #G
   (Em)                             (G)               (Gsus4)    (G)
e|--------------------------------|---------------------------------------|
B|--------------------------------|-----------------------------13-15-16--|
G|----15b(17)r--13 /17---17---/13-|--------------------13-15-16-----------|
D|--------------------------------|-----------13-15-16--------------------|
A|--------------------------------|--13-15-16-----------------------------|
E|--------------------------------|---------------------------------------|
                                The fast notes here you can either pick every or do hammerons


e|----------------------------|
B|--16b(18)~~~~~~~~~~~~~r-----|
G|----------------------------|
D|----------------------------|
A|----------------------------|
E|----------------------------|

The last 16th bend starts when the piano starts playing the intro again.

That's it ;D

Good Luck and Have Fun! ;D

Enjoy!

Domleee
Tap to rate this tab
 
# A B C D E F G H I J K L M N O P Q R S T U V W X Y Z