Song name
# A B C D E F G H I J K L M N O P Q R S T U V W X Y Z

Ozzy Osbourne - Flying High Again tab

-------------------------------------------------------------------------------
	               Flying High Again - Ozzy Osbourne
-------------------------------------------------------------------------------
Tabbed by:JHH
Email:JH.Huhta@gmail.com

Tuning:Half-Step Down

| /   slide up
| \   slide down
| h   hammer-on
| p   pull-off
| t   tremolo
| ~   vibrato
| +   harmonic
| x   Mute note
| b   Bend

e|--14-----------14-----------14-----------14------------|
B|-----17p14--------17p14--------17p14--------17p14------|
G|-----------b16----------b16----------b16----------b16--|
D|-------------------------------------------------------|
A|-------------------------------------------------------|
E|-------------------------------------------------------|

e|--17-16-14--------------------------------------|
B|-----------17-15-14-----------------------------|
G|--------------------17-16-14--------------------|
D|-----------------------------16-14--------------|
A|-----------------------------------16-15h16p15--|
E|------------------------------------------------|

e|--------------------------------------------14h15p14----------|
B|--------------------------------------14-17----------17-17~---|
G|--------------11----11h12-14p12h14/16-------------------------|
D|--12p11h12-14----14-------------------------------------------|
A|--------------------------------------------------------------|
E|--------------------------------------------------------------|

e|------------------------------------------------------------|
B|--------------------------------------14-15-14-15-14t15-----|
G|--------------------------------14-16-------------------16--|
D|--------------------------16-14-----------------------------|
A|--------12----14-12-16-14-----------------------------------|
E|--14-12----14-----------------------------------------------|

 |------------Repeat this 3 times---------------|---------Then---------|
                         
e|--------10h14p10----------10h15p10------------|---19p17h19p17h19p17--|  
B|--10h14----------14p10h14----------14p10h14---|----------------------|
G|----------------------------------------------|----------------------|
D|----------------------------------------------|----------------------|
A|----------------------------------------------|----------------------|
E|----------------------------------------------|----------------------|

 Tap 
           
e|17p12h17p12p9h12(4x)------------------------------------------|
B|--------------------18p13h18p13p10h13(4x)---------------------|
G|-----------------------------------------19p14h19p14p11h14(4X)|
D|--------------------------------------------------------------|
A|--------------------------------------------------------------|
E|--------------------------------------------------------------|

-------------------------------------------|
-------------------------------------------|
-------------------------------------------|
20p15h20p15p12h15 20p15h20p15p12h15 20p15\-|
-------------------------------------------|
-------------------------------------------|


e|12p7h12p7p4h7(4x)---------------------------------------------------------------------------|
B|-----------------13p8h13p8p5h8(4x)----------------------------------------------------------|
G|----------------------------------14p9h14p9p6h9(4x)-----------------------------------------|
D|---------------------------------------------------15p10h15p10p7h10 15p10h15p10p7h10 15p10\-|
A|--------------------------------------------------------------------------------------------|
E|--------------------------------------------------------------------------------------------|


Tap to rate this tab
 
# A B C D E F G H I J K L M N O P Q R S T U V W X Y Z