Song name
# A B C D E F G H I J K L M N O P Q R S T U V W X Y Z

Ozzy Osbourne - Killer Of Giants tab

Here's the Refrain, 
I am working on tabbing the intro, verses and solo. 
so keep checking back.

TUNE: HALF-STEP DOWN
eb|---------------------------------------------|
Bb|---------------------------------------------|
Gb|11-9---7---6--4---4-----------------2--------|
Db|11-9---7---6--4---4-----------------2---7-7--|
Ab|-9-7---5---4--2---2----2---4----5---0---7-7--|
Eb|----------------------------------------5-5--|
   killer of giants      threatens us all
eb|---------------------------------------------|
Bb|---------------------------------------------|
Gb|11--9----7---6--4---4---------------2--------|
Db|11--9----7---6--4---4---------------2---7-7--|
Ab|-9--7----5---4--2---2----2--4---5---0---7-7--|
Eb|----------------------------------------5-5--|
  mountains of maddnes    standing so tall
eb|---------------------3-----------------------|
Bb|-----------------0---0------------------5----|
Gb|11--9----7----2--0---0------------------4----|
Db|11--9----7----2--0---0------------------5----|
Ab|-9--7----5----0------------------------------|
Eb|-----------------3---3-----------------------|
   Mountains of protest   not stopping the war   
eb|----------------------------------------------|
Bb|----2-----2----2----2-----2-----2---2-------2-|
Gb|-------4----4----4----4-----4-----4---4-----4-|
Db|7-------------4---------4-----4---------4---4-|
Ab|7-----------------------------------------2---|
Eb|5---------------------------------------------|
  ohh  the killer of giants  the killer of giants

Please Rate and Comment.

************************************

| /   slide up
| \   slide down
| h   hammer-on
| p   pull-off
| ~   vibrato
| +   harmonic
| x   Mute note
| b   Bend
| pb  Pre-bend
| br  Bend release
| pbr Pre-bend release
| brb Bend release bend

************************************
  
Tap to rate this tab
# A B C D E F G H I J K L M N O P Q R S T U V W X Y Z