Song name
# A B C D E F G H I J K L M N O P Q R S T U V W X Y Z

Ozzy Osbourne - Rock N Roll Rebel tab

-------------------------------------------------------------------------------
                             Rock 'N' Roll Rebel - Ozzy Osbourne
-------------------------------------------------------------------------------
Tabbed by: Watts
E-mail: urmomsputty@yahoo.com

This song is very 80's, but nonetheless a great Ozzy song. Also, I did not tab out
any of the solos, it's been awhile since I've played this song (1-2 years ago),
the solos are in f# minor.

Tuning:Standard

Main Riff
  P.M. .      . .     .     . .     . .     .
e|-----------------------------------------------------------------|
B|-----------------------------------------------------------------|
G|2--------4-------6-----2-------4-------6-------------9/11-11-11--|
D|2--------4-------6-----2-------4-------6--------4-4--9/11-11-11--|
A|------------------------------------------------4-4--7/9--9--9---|
E|---2-2------2-2-----2-----2-2-----2-2-----2--0--2-2--------------|

  P.M. .     . .     .     . .     . .     .
e|----------------------------------------------------------------|
B|----------------------3-----------------------------------------|
G|2-------4-------6-----2-------6-------4-------------9/11-11-11--|
D|2-------4-------6-------------6-------4--------4-4--9/11-11-11--|
A|-----------------------------------------------4-4--7/9--9--9---|
E|---2-2-----2-2-----2-----2-2-----2-2-----2--0--2-2--------------|

Verse
e|----------------------------------------|
B|----------------------------------------|
G|----------4----7------------9/11-11-11--|
D|4----7----4----7-------4-4--9/11-11-11--|
A|4----7----2----5-------4-4--7/9--9--9---|
E|2----5--------------0--2-2--------------|

Prechorus
              P.M. . . .  . . . .  . . . .
e|------------------------------------------|
B|------------------------------------------|
G|------------------------5-5-5-5--7-7-7-7--|
D|5----7----5----7-7-7-7--5-5-5-5--7-7-7-7--|
A|5----7----5----7-7-7-7--3-3-3-3--5-5-5-5--|
E|3----5----3----5-5-5-5--------------------|

Chorus
P.M..     . .     . .                  . .     . .
e|----------------------------------------------------------------------|
B|----------------------------------------------------------------------|
G|-----9-------7----------------------------9-------7-------------------|
D|-----9-------7----------------------------9-------7-------------5--7--|
A|-----7-------5-------7-5-4-5~-4-----------7-------5----7-5-4----5--7--|
E|0-0-----0-0-----0-0-------------5----0-0-----0-0-------------5--3--5--|

P.M..     .                       . .     . .     . .
e|-------------------------------------------------------------------|
B|-------------------------------------------------------------------|
G|-----9-----12--7---------------------9-------7---------------------|
D|-----9-----12--7---------------------9-------7---------------5--7--|
A|-----7-----10--5--7-5-4-5~-4---------7-------5------7-5-4----5--7--|
E|0-0-----0--------------------5--0-0-----0-0-----0-0-------5--3--5--|

P.M..              . . . . . . . .
e|----------------------------------|
B|----------------------------------|
G|-----9--12--7----7-7-7-7-7-7-7-7--|
D|-----9--12--7----7-7-7-7-7-7-7-7--|
A|-----7--10--5----5-5-5-5-5-5-5-5--|
E|0-0-------------------------------|

Bridge
e|------------------------------------------------------------|
B|------------------------------------------------------------|
G|4-4----4-4------------------6-6----6-6----11-9--7--6--7--9--|
D|4-4----4-4----5-5----5-5----6-6----6-6----11-9--7--6--7--9--|
A|2-2----2-2----5-5----5-5----4-4----4-4----9--7--5--4--5--7--|
E|--------------3-3----3-3------------------------------------|

Solo Rhythm
e|----------------------------------------------------|
B|----------------------------------------------------|
G|4---------6---------------4---------6---------------|
D|4----5----6---------------4----5----6---------------|
A|2----5----4---------------2----5----4---------------|
E|-----3---------5--3--2---------3---------5--3--2----|

                              P.M. . . . . . . . . . . . . . . .
e|----------------------------------------------------------------|
B|----------------------------------------------------------------|
G|4--7-------4--7-------4--7--6--6-6-6-6-6-6-6-6-7-7-7-7-7-7-7-7--|
D|4--7--7----4--7--7----4--7--6--6-6-6-6-6-6-6-6-7-7-7-7-7-7-7-7--|
A|2--5--7----2--5--7----2--5--4--4-4-4-4-4-4-4-4-5-5-5-5-5-5-5-5--|
E|------5----------5----------------------------------------------|

P.M.. . . . . . . . . . . . . . . . . . . . . . .
e|-------------------------------------------------|
B|-------------------------------------------------|
G|9-9-9-9-9-9-9-9----------------------------------|
D|9-9-9-9-9-9-9-9-4-4-4-4-4-4-4-4-4-4-4-4-4-4-4-4--|
A|7-7-7-7-7-7-7-7-4-4-4-4-4-4-4-4-4-4-4-4-4-4-4-4--|
E|----------------2-2-2-2-2-2-2-2-2-2-2-2-2-2-2-2--|

Outro Chorus
P.M..     . .     . .                  . .     . .
e|----------------------------------------------------------------------|
B|----------------------------------------------------------------------|
G|-----9-------7----------------------------9-------7-------------------|
D|-----9-------7----------------------------9-------7-------------5--7--|
A|-----7-------5-------7-5-4-5~-4-----------7-------5----7-5-4----5--7--|
E|0-0-----0-0-----0-0-------------5----0-0-----0-0-------------5--3--5--|


P.M..     .                       . .     . .     . .
e|-------------------------------------------------------------------|
B|-------------------------------------------------------------------|
G|-----9-----12--7---------------------9-------7---------------------|
D|-----9-----12--7---------------------9-------7---------------5--7--|
A|-----7-----10--5--7-5-4-5~-4---------7-------5------7-5-4----5--7--|
E|0-0-----0--------------------5--0-0-----0-0-----0-0-------5--3--5--|

Order:
Main Riff x2
Verse x2
Prechorus
Chorus
Main Riff
Verse x2
Prechorus
Chorus
Main Riff (played a bit differently)
Bridge
Solo Rhythm
Main Riff
Verse x2
Prechorus
Outro Chorus (repeat the second half until song fades out)

************************************

| /   slide up
| \   slide down
| ~   vibrato
************************************
Tap to rate this tab
 
# A B C D E F G H I J K L M N O P Q R S T U V W X Y Z