Song name
# A B C D E F G H I J K L M N O P Q R S T U V W X Y Z

Ozzy Osbourne - Paranoid Live tab

ARTUST: Ozzy Osbourne
SONG: Paranoid
ALBUM: Trubute

                    " WERE GONNA DO PARANOID! "

                     [INTRO]

e|---------------------|
B|---------------------|
G|-9-9-9----7H9---7H9--|
D|-9-9-9-7H9---7H9-----|
A|-7-7-7---------------|
E|---------------------| X4

                     [MAINRIFF/VERSE]

e|----------------------------------|
B|----------------------------------|
G|---------------------------7------|
D|---------------------------5-7-9--|
A|----------------5H7----------5-7--|
E|-000-000-000-5H7---000-000--------|X4 ( SING ON THE 3RD TIME)
 {...............P.M........}

         [FILL_1]
e|----------------------------------|
B|----------------------------------|
G|----------------------------------|
D|-9--5--7-----------------9--5--7--|
A|-7--3--5-----------------7--3--5--|
E|--------000-000-000-0000----------|X2

         [FILL_2]
e|------------------------------------------------------|
B|------------------------------------------------------|
G|------------------------------------------------------|
D|-9-------------------------------------------------5--|
A|-7 OK ITS INPORTANT THAT YOU LEAVE SOME TIME HERE -3--|
E|------------------------------------------------------|X2

Thank you all for your time. I hope you all like my tab cuz there will be a lot more on 
the way. So MIKE CRANE OUT
Tap to rate this tab
# A B C D E F G H I J K L M N O P Q R S T U V W X Y Z