Song name
# A B C D E F G H I J K L M N O P Q R S T U V W X Y Z

Ozzy Osbourne - Iron Man Live tab

song: Ironman
Artist: Ozzy Osbourne
Album: Tribute

Im tabbing this song the way thaat Randy Rhoads played in the Tribute album
so it does NOT have the solo in it because it goes it to Children Of The Grave!!! SO 
"LETS GO FOR IRONMAN"-Ozzy

          [ MAIN RIFF ]
e|-----------------------------------------|
B|-----------------------------------------|
G|-----------------------------------------|
D|-----------------------------------------|
A|-4-4/7-7/9-9-12-11-12-11-12-11-12-7-9-9--|
E|-2-2/5-5/7-7-10-9--10-9--10-9--10-5/7-7--| x2

           [ VERSE ]
e|-----------------------------------------|
B|-----------------------------------------|
G|-----------------------------------------|
D|-----------------------------------------|
A|---3-3H5-5-8-7-8-7-8-7-5H7-7-------------|
E|-5---------------------------------------| x2

         [FILL]
e|-----------------------------------------|
B|-----------------------------------------|
G|-----------------------------------------|
D|---------------7H8H9----------7H8H9------|
A|-9-7--9-9-7H8H9------9-9-7H8H9-----------|
E|-7-9--7-7------------7-7-----------------|
         [PRE SOLO]
e|--------------------------|
B|--------------------------|
G|--------------------------|
D|-11-9---------------------|
A|------11-10-9-7-----------|
E|----------------7-7H9-9---| x2


HAS HE LOST HIS MIND CAN HE SEE OR IS HE BLIND?
 CAN HE WALK AT ALL OR IF HE MOVES WILL HE FALL?

          [MAIN RIFF]
          [VERSE]
IS HE ALIVE OR DEAD I SEE THOUGHTS IN HIS HEAD?
WE'LL JUST PASS HIM THERE WHY SHOULD WE EVEN CARE?

          [MAINRIFF]
          [VERSE]
HE WAS TURNED TO STEEL IN THE GREAT MAGNETIC FEALD!
WHEN HE TRAVILS TIME FOR THE FUTURE OF MANKIND!
               [FILL]
NOBODY WANTS HIM
THEY JUST TURN THERE HEADS
NOBODY HELPS HIM
NOW HE WAITS HIS REVENGE

         [MAINRIFF]
         [VERSE]
NOW THE TIME IS HERE FOR IRONMAN TO SPREAD FEAR!
VENGANCE FROM THE GRAVE KILLS THE PEAPLE HE ONCE SAVED!
               [FILL]
NOBODY WANTS HIM
THEY JUST TURN THERE HEADS
NOBODY HELPS HIM
NOW HE HAS HIS REVENGE

      [PRESOLO]

ok guys this is the part i was talking about, it goes in to "Chilren Of The Grave" i'm 
going to tab it cuz to me there both joinned so its the same song right?

"OK MAN LETS GET ROCKIN AND ROLLIN WHERE GONNA DO CHILDREN OF THE GRAVE"-Ozzy
                  [INTRO]
e|------------------------------------------------------------------------|
B|------------------------------------------------------------------------|
G|------------------------------------------------------------------------|
D|------------------------------------------------------------------------|
A|------------------------------------------------------------------------|
E|-0-0-0-0-0-0-0-0-0-0-0-0-0-0-0-0-0-0-0-0-0-0-0-0-0-0-0-0-0-0-0-0-0-0-0-0|
 [FILL]
e|-----------------------|
B|-----------------------|
G|-----------------------|
D|-----------------------|
A|-12-14-17-10-10-14-----|
E|-10/12-15-8--8//12-\-\-|

                     [MAINRIFF]

e|-------------------------------|
B|-------------------------------|
G|-------------------------------|
D|-------------------------------|
A|-----------------10-12---------|
E|-0000-0000-00000-8--7----------|

You just repeat those a bounch

PLEASE LOOK FOR SOME MORE OF MY OZZY OSBOURNE TABS-R.I.P. RANDY RHOADS
Tap to rate this tab
 
# A B C D E F G H I J K L M N O P Q R S T U V W X Y Z