Song name
# A B C D E F G H I J K L M N O P Q R S T U V W X Y Z

Ozzy Osbourne - Killer Of Giants tab

                            Killer of Giants
                         The Ultimate Sin(1986)
                             Ozzy Osbourne
Guitar: Jake E. Lee
I wanted to submit this tab for ultimately only two measures of the solo. I have seen
far too many Tabs for this song that do the rest of the song wonderfully but can't get two
parts of the solo correct. I admit I have spent a long time trying to figure it out 
myself, and after watching the version off of The Ultimate Ozzy show far too many times I
finally noticed that it was right there in front of me the whole time.

Solo
             ~~~                        PM----|       ~
                                      |-3-| |-3-|
  S T T S S +Q   S T T S S +E  S S    E E E E E E E.S Q
|-7--------------------------------|---------------------|
|-7h8p7----------7-----------------|---------------------|
|-------9-7-(7)--7h9p7-------------|---------------------|
|----------------------9-7-(7)-9p7-|---------------------|
|----------------------------------|-\7-5-4-5-4----------|
|----------------------------------|------------5s7S2-2--|
1                                  2

This is what we all got wrong in measure 3. Jake strums the open E and lower "octave
slides" with his index and taps the upper ones with his index and ring. if you watch the
live version on The Ultimate Ozzy this is seen clearly.

                             |--3--|
  S S S  S  Q   S S  S  S  Q    E  E  E  E  S  S  a  E. S E +E
|-----------------------------|---------12-14-14-14s10--9-7-(7)\-|
|-----------------------------|-7-10-12--------------------------|
|-------14s12-------16s14-----|----------9-11-11-11s=7--6-4-(4)\-|
|---4s5---------5s7-----------|-4--7--9--------------------------|
|-------12s10-------14s12-----|----------------------------------|
|-0-2s3-------0-3s5-----------|----------------------------------|
3        T  T        T  T     4

  S  T T S T T S T T E S  T T S T T S T T E
|-------------------------------------------|
|-------------------------------------------|
|-9h11p9s7h9p7s6h7p6s4S9h11p9s7h9p7s6h7p6s4-|
|-------------------------------------------|
|-------------------------------------------|
|-------------------------------------------|
5

   |-3--|     |-3--|
   E E  E  a  E E  E  E  +T   T  T  T  Q
|-10s9-10-10s12s9s12-14-(14)----------------|
|-------------------------------------------|
|--7s6--7--7s=9s7s=9-11-(11)-14-11-14-11\---|
|-------------------------------------------|
|-------------------------------------------|
|-------------------------------------------|
6
Again in measure 7. Jake uses the same technique.
                                              ~~~                 ~~
  S S S  S E S S S S  S  S  E. S     E. T  T  E.  T T  E S  T  T  Q
|--------------------------------|-------------------------------14--|
|--------------------------------|------14-15-17--15-14----14-15-----|
|-------14s12--------16s14-------|-/16------------------16-----------|
|---7s9---------9s11-------------|-----------------------------------|
|-------12s10--------14s12-------|-/14-------------------------------|
|-0-5s7-------0-7s9--------------|-----------------------------------|
7        T  T          T  T      8

      |--3--|                       |--3--|
   S  T  T  T  S  S  S  S  S  S  S  T  T  T  S  S  S  S  S  S
|-15-14h15p14-------------------17-14h17p14-------------------|
|-------------15-------------15-------------17-15----------17-|
|----------------16-12s14s16----------------------14s16s18----|
|-------------------------------------------------------------|
|-------------------10s12s14----------------------12s14s16----|
|-------------------------------------------------------------|
9

                                               ~~~~
   E     +S   T  T  E  S  T  T  E     +E      +Q
|-17b19r(17)-17-17-17s14-14-14-14b15r(14)b15r(14)--|
|--------------------------------------------------|
|--------------------------------------------------|
|--------------------------------------------------|
|--------------------------------------------------|
|--------------------------------------------------|
10


   Q      +Q    Q      Q
|-19b21r=(19)--19b22--19b21--|
|----------------------------|
|----------------------------|
|----------------------------|
|----------------------------|
|----------------------------|
11
Tap to rate this tab
# A B C D E F G H I J K L M N O P Q R S T U V W X Y Z