Guitaretab - guitar tabs
Song name
# A B C D E F G H I J K L M N O P Q R S T U V W X Y Z

Ozzy Osbourne - Revelation Mother Earth tab

Ozzy Osbourne
"Revelation (Mother Earth)"
From The Album Blizzard of Ozz

*note*: this is NOT my work, i just noticed this site doesn't have the COMPLETE tab, so here it is:

Rhoads (EADGBe)

(Clean)
Intro         Em                B7/D#                    Em
|------------|-3-----2-----0---|-2----------------------|-3-----2-----0----|
|------------|-----0-----0-----|-----0-h-1--0-----------|-----0-----0------|
|-------3--4-|---0-----0-------|-------------------3--4-|---0-----0--------|
|------------|-2---------------|-1-------------1--------|-2----------------|
|------------|-----------------|------------------------|------------------|
|------------|-----------------|------------------------|------------------|

 B7                    Em                  G
|-2-------------------|-3-----2-----0-h-2-|-3-----------3-p-2--2h3p2p0--|
|-----0---1--0--------|-----0-----0-------|---------0-------------------|
|----------------3--4-|---0-----0---------|------0----------------------|
|-1-------------------|-2-----------------|-----------------------------|
|---------------------|-------------------|----2------------------------|
|---------------------|-------------------|-3---------------------------|

 D              B7/D#                F/Am Am     F#  Em
|--------3-p-2-|-2------------------|---------------|-0--7--6--7--5--------|
|-3------------|----0--1----0-------|-7---5---5---4-|-0--------------8--7--|
|------2-------|---------------3--4-|-5---5---5---2-|-4--------------------|
|-0------------|-1------------------|-7---7---7---4-|-2--------------------|
|--------------|--------------------|---------------|----------------------|
|--------------|--------------------|---------------|----------------------|

                       Verse
                        Em              B7             Harm.
|----7--5\3--5---------|-3-----2-----0-|-2--------------------2-p-0--|
|-8--8--7\5--7---------|-----0-----0---|-----0-h-1--0----------------|
|----------------3-h-4-|---0-----0-----|---2-----------x12x----------|
|----------------------|-2-------------|-1---------------------------|
|----------------------|---------------|-----------------------------|
|----------------------|---------------|-----------------------------|


Em               B7                  Em              G
|-3-----2-----0-|-2---3-------------|-3-----2-----0-|-3--------------------|
|-----0-----0---|---0----1-p-0------|-----0-----0---|------0----3----------|
|---0-----0-----|---------------3/4-|---0-----0-----|----0-----------------|
|-2-------------|-1-----------------|-2-------------|----------------------|
|---------------|-------------------|---------------|-2------------0--2----|
|---------------|-------------------|---------------|-3-----------------0--|


 D              B7/D#                 F/Am Am   F#  Em
|-2----------0-|-2--------------------|------------|----7-6-7p5-------|
|---------3----|-------0-h-1--0-------|-7--5--5--4-|----8---8----8p7--|
|------2-------|-----------------3--4-|-5--5--5--2-|------------------|
|-0------------|----2-----------------|-7--7--7--4-|------------------|
|--------------|-1--------------------|------------|-X----------------|
|--------------|----------------------|------------|-0----------------|


 Harm.                    Em              B7
|------7--5\3--3/5-------|-3-----2-----0-|-2---------------------------|
|------8--7\5--5/7-------|-----0-----0---|----0-1--0h1p0h1p0-----------|
|-------------------3--4-|---0-----0-----|--------------------3--4-----|
|------------------------|-2-------------|-1---------------------------|
|------------------------|---------------|-----------------------------|
|-x5x--------------------|---------------|-----------------------------|


 Em               B7              Em              G
|-3-----2-----0-|-2/3\2h3--------|-3-----2-----0-|-3------3---2---3/5----|
|-----0-----0---|----------1---0-|-----0-----0---|-----------------------|
|---0-----0-----|----------------|---0-----0-----|------0----------------|
|-2-------------|----------------|-2-------------|----0------------------|
|---------------|----------------|---------------|-2---------------------|
|---------------|----------------|---------------|-3---------------------|


                                                                 (Distortion)
 D                   B7/D#          F/Am Am   F#  E5                B5
|---------2---------|-2-------------|------------|---0-----0-|---0---------|
|----3h5------3-----|----1--0-------|-7--5--5--4-|------0----|-0-----------|
|----------------2--|----------3--4-|-5--5--5--2-|-----------|-------4--4--|
|-0-----------------|-1-------------|-7--7--7--4-|-----------|-------4--4--|
|-------------------|---------------|------------|-----------|-------2--2--|
|-------------------|---------------|------------|-0---------|-------------|


 E5                               A#5                      E5
|-0-----0---0====-|------0-------|------------|-----------|-----0---0------|
|-9-----0------0--|------0-------|------------|-----------|-9---0------0---|
|-9---------------|-9=======(9)\-|-3--------1-|--(1)--%---|-9--------------|
|-9---------------|-9=======(9)\-|-3-----3----|-----------|-9--------------|
|-7---------------|-7=======(7)\-|-1----------|-----------|-7--------------|
|-0---------------|-0=======(0)\-|-1----------|-----------|-0--------------|


 E5                A#5                Pick Slide E5
|------------0----|------------|----------------|-----0-----|--------------|
|-9----0----------|----------1-|----------------|-9---0---0-|------0-------|
|-9-------------9-|-3----------|--(1)-----X-----|-9---------|-9=======(9)\-|
|-9-------------9-|-3-----3----|----------X-----|-9---------|-9=======(9)\-|
|-7-------------7-|-1----------|----------X-----|-7---------|-7=======(7)\-|
|-0---------------|-1----------|----------------|-0---------|--------------|


 A#5            Pick Slide E5                        A#5
|--------1=|=(1)----------|-----0-----|-----0-------|---------1------------|
|----------|--------------|-9---0---0-|-9---0--0----|-----1----------------|
|-3========|=(3)----------|-9---------|-9--------9\-|-3--------------------|
|-3========|=(3)----X-----|-9---------|-9--------9\-|-3--------------------|
|-1========|=(1)----X-----|-7---------|-7--------7\-|-1--------------------|
|-1========|=(1)----X-----|-0---------|-0-----------|-1--------------------|


 Pick Slide  B5  C5    A5        B5  C5    A5        C5 B5  G   F#
|-----------|-------------------|-------------------|----------------|
|-(1)-------|-7---8-------------|-7---8-------------|-8--------------|
|-(1)-X-----|-8---9--X--9--X--X-|-8---9--X--9--9--X-|-9--------------|
|-(3)--X----|-9--10--X--7--X--X-|-9--10--X--7--7--X-|10--------------|
|-(1)---X---|-9--10--X--7--X--X-|-9--10--X--7--7--X-|10--9-----------|
|-(1)----X--|-7---8-----5-------|-7---8-----5--5----|-8--7--3~---2~--|

 E5                       Harmonics  Pick Slide E
|-----0---0-----|--------0---------------------|--------0-----|(0)---------|
|-------------0-|----0-----------x5x-----------|--------0---0-|------------|
|---------------|--------------x5x-------X-----|--------------|------------|
|---------------|------------x5x---------X-----|--------------|------------|
|-------------2-|----------x5x-----------X-----|-9h11---------|-9/11~-(11)\|
|-0-------------|-0----------------------------|----0---------|------------|


 A#5                   Pick Slide E5            E             A#5
|------------|-------------------|-----0--0----|-------------|-------------|
|------------|(1)----------------|-9---0-----0-|(0)----------|----------1--|
|-3--------1-|----1h3p1----------|-9-----------|-------------|-3-----------|
|-3-----3----|-----------3--X----|-9-----------|-------------|-3-----3-----|
|-1--1-------|--------------X----|-7-----------|-9/11~-(11)\-|-1--1--------|
|------------|-------------------|-0-----------|-------------|-------------|


           Pick Slide E5                E              A#5
|--------------------|-----0-----------|--------------|---|----------------|
|--------------------|-9---0----0------|(0)-----------|---|----------------|
|(1)-----------------|-9---------------|--------------|-3-|-(3)------------|
|--------------------|-9---------------|--------------|-3-|-(3)------------|
|---------------X----|-7-----------7h9-|-9/11~--(11)\-|-1-|-(1)------------|
|-----0--0--0--------|-0---------------|--------------|-1-|-(1)-----18\----|


 E5           E   Pick Slide A#5 Pick Slide B5 C5 E5    B5 C5  E5
|-----0------|--------------|---|----------|-----------|------------|
|-9---0----0-|(0)-----------|---|-X--------|-7--8------|-7--8-------|
|-9----------|--------------|-3-|--X-------|-8--9--9---|-8--9-------|
|-9----------|--------------|-3-|---X------|-9-10--7-7-|-9-10-\-7-7-|
|-7----------|-9/11~--------|-1-|----X-----|-9-10--7-7-|-9-10-\-7-7-|
|-0----------|---------X----|-1-|-----X----|-7--8--5-5-|-7--8-\-5-5-|


 C5 B5 G   F#    E5      A#5    E               E5      A#5
|--------------||--------------|-------------5-|--------------|
|-8--7---------||--------------|----------5----|--------------|
|-9--8---------||----9\X--3----|---------3--3--|----9\X--3----|
|10--9---------||----9\X--3----|-----2-5-------|----9\X--3----|
|10--9---------||----7\X--1----|---------------|----7\X--1----|
|-8--7--3~--2~-||-0----------1-|-2~------------|-0----------1-|

                    E5      A#5    E                 C5 B5 G   F#
|----------------3-|--------------|---------------5-|----------------|
|-------------5----|--------------|------------5----|-8--7-----------|
|------------3--3--|----9\X--3----|-----------3--3--|-9--8-----------|
|--------2-5-------|----9\X--3----|-------2h5-------|10--9-----------|
|------------------|----7\X--1----|-----------------|10--9-----------|
|-2^(3)~-----------|-0----------1-|-2~-2~-----------|-8--7--3~--2p0--|

(Clean)
 Em
|---------------------|-7-------------------|
|---8-p-7--8-7----7h8-|---10--8-----7-----8-|
|--------------9------|---------(9)---9-----|
|---------------------|-----------------9---|
|---------------------|---------------------|
|-0-------------------|---------------------|

Interlude
 Em                      F#                D
|-----------------------|-----------------|-------------------------|
|-8------(8)--8-----7h8-|-7--------7------|-7--7/8---8/10---10/(8)--|
|-----9---------(9)-----|-----8--8---8----|-------------------------|
|---9-------------------|--------------10-|-0-----------------------|
|-7---------------------|-----------------|-------------------------|
|-----------------------|-----------------|-------------------------|
[ Tab from: http://www.guitaretab.com/o/ozzy-osbourne/49626.html ]
 G                A7/C#             Am/C            B7
|----------------|------------3----|--------5------|----------------|
|-8------------8-|-8\5-----5-----5-|------5--------|-----4--5--7----|
|---7--------7---|------2----------|----2------2---|----------------|
|-----9----9-----|-----------------|-------------2-|----------------|
|-------10-------|-7\4-------------|-3-------------|-2--------------|
|----------------|-----------------|---------------|----------------|

 Em                             F#            D
|--------------|---------------|-------------|-----------------------|
|-8--8--7--5h7-|-8-------8p7---|-7-----------|----7/8---8/10---10/8--|
|--------------|-------9-----9-|-------8-----|-----------------------|
|--------------|-----9---------|----------10-|-----------------------|
|--------------|---7-----------|-------------|-5---------------------|
|--------------|---------------|-------------|-----------------------|

 G                  A7/C#          Am/C            B7
|-7--------------3-|-------3------|-------5---------|----------------|
|---8----------0---|---5--------5-|-----5----5------|-----4---5---7--|
|-----7------4-----|-----2----2---|---2--------2----|----------------|
|-------9--5-------|--------------|-----------------|----------------|
|------------------|-4------------|-3-------------3-|-2--------------|
|------------------|--------------|-----------------|----------------|

 Em                                   F#              D
|---------------------|--------------|------8--------|-------------------|
|-8\7-8/10-12p10-10\8-|-8----------8-|-7--------7----|---7/8-8/10-10/12--|
|-9\8-9/11-12\11-11\9-|-9-------9----|----8----------|-------------------|
|---------------------|-------9------|---------------|-------------------|
|---------------------|---7-7--------|-------------9-|-5-----------------|
|---------------------|--------------|---------------|-------------------|

 G                    A7/C#             Am/C              B7
|--------------------|-----------------|-----------------|-----------------|
|-12---------------8-|----------8------|--------10-------|-----4---5---7---|
|-12-12----------7---|-9-------------9-|-----9-----9-----|-----------------|
|------12-9----9-----|-------7-----7---|---7---------7---|-----------------|
|-----------10-------|-----------------|---------------7-|-2---------------|
|--------------------|----9------------|-8---------------|-----------------|

 Em                          F#              D
|-------------|-------------|-------8-------|----------------------|
|-8----7----8-|-8----7----8-|-7-------10----|-----7/8--8/10--10/8--|
|--(9)--------|-------------|------------11-|----------------------|
|-------------|-------------|---------------|-0--------------------|
|-------------|-------------|---------------|----------------------|
|-------------|-------------|---------------|----------------------|

                                                 (Distortion)
 G                  A7/C#              Am/C       Pick Slide
|-7----------------|------------------|----------------------|
|---8------------8-|----------8-------|---------10-----------|
|-----7--------7---|-9--------------9-|-------9-------X------|
|-------9----9-----|-------7--------7-|----7----------X------|
|---------10-------|------------------|---------------X------|
|------------------|----9--------9----|-8--------------------|

 B5 C5  G  F#  E5      A#5                        E5      A#5
|-------------|--------------|-----------------3-|---------------|
|-------------|--------------|-------------5-----|---------------|
|-------------|----9\X--3----|-----------3---3---|----9\X--3-----|
|-4--5--------|----9\X--3----|-------2-5---------|----9\X--3-----|
|-2--3--------|----7\X--1----|-------------------|----7\X--1-----|
|-------3~-2~-|-0----------1-|-2~-2~-------------|-0----------1--|

                      E5      A#5                        C5 B5  G  F#
|------------------3-|--------------|-----------------3-|---------------|
|--------------5-----|--------------|-------------5-----|---------------|
|------------3---3---|----9\X--3----|-----------3---3---|---------------|
|-------2-5----------|----9\X--3----|-------2-5---------|-5--4----------|
|--------------------|----7\X--1----|-------------------|-3--2----------|
|-2~-2~--------------|-0----------1-|-2~-2~-------------|-------3~-2~---|

Solo/Outro
 Em                 E                           Em
|------------------|---------------------------|------------------|
|------------------|-5-------------------------|------------------|
|------------------|-3-------------------------|------------------|
|------------------|-5---------------4h5p4h5p4-|------------------|
|-7----------------|-----------4h5h7-----------|-7\---------------|
|-0-0-0-0--0-0-0-0-|---0-0-0-0-----------------|---0-0-0--0-0-0-0-|

  E     B                Em                  E
|-----------------------|------------------|-----------------------------|
|-5-----4---------------|------------------|-5---------------------------|
|-3-----4--4h5p4-4------|------------------|-3---------------------------|
|-5-----4-------7-7p5p4-|------------------|-5---------------------------|
|-------2---------------|-7\---------------|-----------4h5h7-4h5p4h5p4---|
|---0-0-----------------|---0-0-0--0-0-0-0-|---0-0-0-0-------------------|

 Em                  E    B7       B
|------------------|--------------|----------------------------------|
|------------------|-5-----4------|-------------------------4h5p5h4--|
|------------------|-3-----2------|-----------------4h5p4h5----------|
|------------------|-5-----4------|-1h2p1h2-4h5p5h5------------------|
|-7\---------------|------(2)-----|----------------------------------|
|---0-0-0--0-0-0-0-|---0-0-----7\-|----------------------------------|

|---------7h8p7h8-11h12p11h12-12h14p12/(14)-|
|-7h8p7h8-----------------------------------|
|-------------------------------------------|
|-------------------------------------------|
|-------------------------------------------|
|-------------------------------------------|

|-14h15p14h15-15h17p15h17-17h19p17h19-19h20p19-|-17-19-15-19-14^------|
|----------------------------------------------|----------------17\---|
|----------------------------------------------|----------------------|
|----------------------------------------------|----------------------|
|----------------------------------------------|----------------------|
|----------------------------------------------|----------------------|

                                                B
|-----7-8-7h8p7---7-10-|-8-7-8p7----7----------|-----------------|
|---8----------10------|---------10--10-8p7----|-----------------|
|-9--------------------|--------------------10-|-8~-8/14~-14/20--|
|----------------------|-----------------------|-----------------|
|----------------------|-----------------------|-----------------|
|----------------------|-----------------------|-----------------|

                     Em
|----22-20-19~19~19-|-22p20p19--19---------------------------------|
|-------------------|---------22--22p20p19-------------------------|
|-------------------|---------------------21\16h17p16--------------|
|-20~---------------|--------------------------------19-17p16\14---|
|-------------------|-------------------------------------------17-|
|-------------------|----------------------------------------------|

                                                B
|----------------------------------------------|----------------------|
|----------------------------------------------|----------------------|
|----------------------------------------------|----------------------|
|-14h15p14--14-----------14h15p14--------------|----------------------|
|---------17--17-14h15h17--------17-15p14------|-----------14---------|
|----------------------------------------17-15-|-14~--15h17--17p15-14-|

             C
|------------12h13h15p13p12-10h12p10----------------7h8h10/(12)-|
|-----------------------------------13p12p10-7h8h10-------------|
|---------------------------------------------------------------|
|---------------------------------------------------------------|
|---------------------------------------------------------------|
|-(14)^(15)~----------------------------------------------------|

                                     B
|-12-0-0-0-10-0-0-0-8-0-0-0-7-0-0-0-|-5h7p5-5--------------------|
|-----------------------------------|------8-8p7p5-5-------------|
|-----------------------------------|-------------7-7p5-4--------|
|-----------------------------------|--------------------7p5p4---|
|-----------------------------------|--------------------------7-|
|-----------------------------------|----------------------------|

   Harmonic     Em
|--------------|---------------------|---------------------|
|--------------|---------------------|---------------------|
|-4------------|---------------------|-------------4h5p4h5-|
|----%7%--5--4-|-------------4h5p4h5-|---------------------|
|--------------|-7\------5-7---------|-7\------5-7---------|
|--------------|---0-0-0-------------|---0-0-0-------------|

                         B               Em           D/F#
|-----------------------|---------------|-0----------|----------------|
|-----------------------|---------------|-8----------|----10----------|
|-----------------------|---------------|-9----------|-----7----------|
|-------------4h5p4h5p4-|-------4h5-4---|-9----------|--------------7-|
|-7\------5-7-----------|-6--7--------7-|-7---7-9-10-|-9-9---9-9-10---|
|---0-0-0---------------|---------------|-0----------|----------------|

 G5             B                    Em     Full  D/F#
|--------------|--------------------|------------|------------------|
|-8--8---------|--------------------|------------|------10----------|
|-7--7---------|--------------------|------------|-------7----------|
|-5--5--7-9/10-|-9-9/13-13/16-(16)\-|-9----------|-----7------------|
|-5--5---------|--------------------|-7--7-9-10v-|-9-9-----9-10-11--|
|--------------|--------------------|-0----------|------------------|

 G5                      B       Harmonic  Em           D/F#
|-----------------------|-----------------|------------|---------------|
|-----------------------|-----------------|------------|----10---------|
|---------12------------|-----------------|------------|-----7---------|
|-----12----------------|----------%16%~\-|-9----------|---7-----------|
|-10---------/14--14/15-|-14-14/16--------|-7---7-9-10-|-9-----9-10-12-|
|-----------------------|-----------------|-0----------|---------------|

 G5              B5 C5 C#5      D5 D#5 E  E5
|---------------|-7--8--9=|=(9)--5--6--0-|---|
|---------------|-7--8--9=|=(9)--7--8--0-|---|
|-12--12--(12)\-|-8--9-10=|(10)--7--8--1-|---|
|-12--12--(12)\-|-9-10-11=|(11)--7--8--2-|---|
|-10--10--(10)\-|-9-10-11=|(11)--5--6--2-|-7-|
|---------------|-7--8--9=|=(9)--5--6--0-|-0-|

Notes:
      Mute the open E string with your palm during the solo.
      Use a little bit of flange on the interlude.
Related for Revelation Mother Earth tab
×
Best way to learn
"Revelation Mother Earth"