Song name
# A B C D E F G H I J K L M N O P Q R S T U V W X Y Z

Ozzy Osbourne - So Tired tab

Ozzy Osbourne-So Tired (solo)
                    
                       Submitted by:Dillon Shifflett

------------------------------------------------------|
------------------------------------------------------|
------------------------------------------------------|
------------------------------------------------------|
-----6/8\6-5-----8--5h6--8--6--5-----8b10--6--5h6p5---|
--6-----------5-------------------6-------------------|


--------------------------6b7--6--6b7--7b7---6--------|
-----------6-4-3-----6b8------------------------6-----|
--------3---------2-----------------------------------|
-----3------------------------------------------------|
--5---------------------------------------------------|
------------------------------------------------------|


-----------3-1-3--5-6-8---10-11-10--|
--3--4--6---------------------------|
------------------------------------|
------------------------------------|
------------------------------------|
------------------------------------|


This is one of my favorite songs from OZZY.These
tabs should be right.(OZZY IS KING.)
Tap to rate this tab
# A B C D E F G H I J K L M N O P Q R S T U V W X Y Z