Song name
# A B C D E F G H I J K L M N O P Q R S T U V W X Y Z

Ozzy Osbourne - That I Never Had tab

Help us improve GuitareTab! Take a short survey!
That I Never Had
------------------

song-That I Never Had
artist-Ozzy Osbourne
album-Down To Earth
tabbed by-Bennyhill64

Drop D tuning
1-e 4-D
2-B 5-A
3-G 6-D

I only know the Main Riff/verse PLEASE PLEASE e-mail me if u have the chorus and solo.

Main Riff
|-------------------------------|-----------------------------------------|
|-------------------------------|-----------------------------------------|
|-------------------------------|-----------------------------------------|
|2p0---------2p0---------2p0----|2p0---------2p0---------2p0---0-----3----|
|2p0---------2p0---------2p0----|2p0---------2p0---------2p0---0-----3----|
|----2-0-2-0-----2-0-2-0--------|----2-0-2-0-----2-0-2-0-------0-----3----|
     Pm-----|    Pm-----|            Pm-----|    Pm-----| 

Verse
|-------------------------------|----------------------------------|
|-------------------------------|----------------------------------|
|-------------------------------|----------------------------------|
|2p0---------2p0---------2p0----|2p0---------2p0---------2p0-------|
|2p0---------2p0---------2p0----|2p0---------2p0---------2p0-------|
|----2-0-2-0-----2-0-2-0--------|----2-0-2-0-----2-0-2-0-----------|
     Pm-----|    Pm-----|            Pm-----|    Pm-----| 

I'm sorry everybody but thats all i know like i said if u have the interlude,chorus
and solo PLEASE PLEASE PLEASE PLEASE PLEASE e-mail me
at blainewt@yahoo.comaloso PLEASE RATE!

tablature legend
-----------------
p-pull off
Pm-palm mute

PLEASE RATE! ENJOY!

Related for That I Never Had tab