Song name
# A B C D E F G H I J K L M N O P Q R S T U V W X Y Z

Ozzy Osbourne - My Little Man tab

|-10---------------0------------------|-----------0----------------------|
|-8--------------0---0----------3-2---|---------0---0--------------------|
|-9----------0---------2----0-------0-|-----0---------0---2-----2--------|
|-7--------2---2--------------2-------|---2---2---------0---0-----0------|
|-0------0----------------0-----------|-0---------------------4-----2----|
|-------------------------------------|-------------------------------3--|

|-------------0------------------|-3-----------------------0-|
|-----------0---0----------3-2---|---5-----3-------------0-0-|
|-------0---------2----0---------|-----5-----4---------2-----|
|-----2---2--------------2-------|-------------5-----2-2-----|
|--------------------0---------0-|-------0-------------------|
|-3/5----------------------------|---------------3/5---------|

|---------------------------|--------------5----------------|
|---3-3-------------5-----5-|------7-----0---5-5------------|
|-2-----2-------6-----6-----|--7-----7-----------4-2/4\2-2/-|
|---------5-----------------|----9-----9--------------------|
|-----------5/7---7-----7---|------------------------------0|
|---------------------------|-------------------------------|

|-9-----7----5----3-----|-3-------------------0---|
|--10----8----5----3----|--3----3-----------0-0---|
|----9----7----6----4-5-|---5----4--------2-------|
|-----------------------|----4h5--5-----2-2-------|
|-----0-----------------|-------------------------|
|----------0----0-------|-----------3/5-----------|

"Dont you know i love you more than..."
|-------0---------------------|---------------0-------------|
|---------0-----3-----2-------|----1----3----0-0------------|
|---2-------2-----0-----0-----|---0----2----2---2-----------|
|-----2-------------2---------|--2----4----2-----2----------|
|-0-----------0-----------0-2-|-3----5----0-----------------|
|-----------------------------|-----------------------------|

|---------0---------------------|-------------------0-------|
|-----------0-----3-----2-------|----1----0-----------0-----|
|-----2-------2-----0-----0-----|---0----0------2-------2---|
|---2---2-------------2---------|--2----0-----2---2---------|
|-0-------------0-----------0-2-|-3----2----0---------------|
|-------------------------------|---------------------------|

"Go to sleep my little man..."
|--------------------------------|--------------------------|
|----------1-------------3-------|-----------0--------------|
|-------0----0-------2-----2-0---|------2-----2---2---------|
|-----3--------3---0---0---------|---0---0-----0----0-------|
|---3--------------------------3-|--4-4---4-----4-----4-----|
|-1--------------3---------------|-5-------5------------5/7-|

|-----1---------3----|-0------------------------------------|
|----1-1-------3-3---|-0------------------------------------|
|---3---3-----5---3--|-0------------------------------------|
|--3---------5-----5-|-2------------------------------------|
|-1-------1-3--------|-0------------------------------------|
|--------------------|--------------------------------------|

"And when you're dreaming..."
|-----2-------------6-----|-------6-----6--------4----------|
|-------2-------------6--6|---------7--------------6---6----|
|---------4---------------|-----------8---------------------|
|-----------4-----------6-|--------------------------6------|
|-------------------------|---------------------------------|
|-------------------------|---------------------------------|
|                         |                                 |
|-------------------------|---------------------------------|
|-----3------------5----5-|-----7----7--------5-----5-------|
|-2-----2--------6----6---|-7------7------6-------6---6-----|
|---------5---------------|---9-----------------------------|repeat
|---5-------5/7-----------|-------------7---7---------------|
|-------------------------|---------------------------------|

|----7-----7------9-----9-|--------11----11---------9-----9-|
|------7------------9-----|----------11---------------9-----|
|--------8-----------10---|------------11--------------10---|
|-------------------------|---------------------------------|
|-------------------------|---------------------------------|
|-------------------------|---------------------------------|
|                         |                                 |
|----3------------5-------|-------------------------5-------|
|------3------------5-----|---------7---7---7---------5-----|
|--4-----4------6-----6-6-|-------7---7---7-------6-----6-6-|
|-------------7-----------|-----9---------------7-----------|
|-----------7-------------|-/10---------------7-------------|
|-------------------------|---------------------------------|

"You cant believe that know my spirit will be by your side"
|------7------7---9-----9-|-----10----10--------12----------|---2---|
|--------7----------9-----|-------10--------------12--------|---2---|
|----------8---------10---|---------11--------------13------|---3---|
|-------------------------|---------------------------------|---4---|
|-------------------------|---------------------------------|-------|
|-------------------------|---------------------------------|-------|
|                         |                                 |       |
|------3----------5-------|-------6--------------8----------|---2---|
|-------3-----------5-----|---6-----6----------8---8--------|---3---|
|---4-----4---6-------6-6-|-----7-----7-7------------9-9----|---2---|
|-5-------------7---------|------------------10-------------|---0---|
|-------------------------|-8--------------10---------------|-------|
|-------------------------|---------------------------------|-------|

SOLO:
|------------------------|----------------------------------|
|------------------------|----------------------------------|
|-/9~~--9-8\6-6~~-3--4/6-|----------------------------------|
|------------------------|-/6~~----6h7p6p4-4----------------|
|------------------------|---------------------dive---------|
|------------------------|-------------------0\\\///--------|

|-------------------------|--------------------PM.........:-|
|-------------------------|---------------------------------|
|-/9~~-9/11\6-6~~--3-4-/6-|--------------------986----------|
|-------------------------|-/6~~--6h7p6p4-4-------986-------|
|-------------------------|-----------------4^-------976----|
|-------------------------|-----------------------------9---|

|----------------------------|---------PM....................:|
|----------------------------|--7^-7^-------------------------|
|-6^-^(6)p4^---6^-6^-^(6)p4^-|-x-----6^-----------------------|
|----------------------------|x----------------------6-686898-|
|----------------------------|--------------6-6767979-9-------|
|----------------------------|---------67979-9----------------|

|-------16-18-19-18h19--18-----|-20^-20^------22^-22^--19---|
|-19^----------------------19^-|------x-------x---x----22^--|
|------------------------------|----------------------------|
|------------------------------|----------------------------|
|------------------------------|---------dive---------------|
|------------------------------|---------0\\__--------------|
Tap to rate this tab
# A B C D E F G H I J K L M N O P Q R S T U V W X Y Z