Song name
# A B C D E F G H I J K L M N O P Q R S T U V W X Y Z

Ozzy Osbourne - Mr Crowley Live tab

-------------------------------------------------------------------------------
			     Mr Crowley Live- Ozyy Osbourne
-------------------------------------------------------------------------------
Tabbed by: Papabear
Email: c2thej_hell_yeah@yahoo.com (don't use the one I signed up with)

Tuning: Standard EADGBe

In the key of F

http://www.youtube.com/watch?v=I94SRfWfx8E

     First off I'm going to state this is NOT the studio version and it is NOT the live
from Tribute.  Go to the website listed above for the video I'm tabbing.  This is for
I found on YouTube, liked it very much, learned it and now want to share it with you.
find the video, type in Randy Rhoads on YouTube and look for the after hours one.  Ok
it's probably not all correct and I just do not know the interlude before the second
sry dont know the chords he uses if someone could figure that out that would be really
 So for the interlude here I'm going to use the one I play.  And lastly, R.I.P RANDY 
 Oh and no synthesizer this is guitar only.


Verse One

|----------------------------------------------------------|
|--3-----3-------------------------------3-----3-----------|
|--2-----2-------------------------------2-----2-----------|
|--0-----0------3---3----------3---3-----0-----0-----------|
|----0----------1-x-1--1-3-1-0-1-x-1--3----0---------------|
|------1----*/-------------------------------1----*/-------|
                       m m m m

|----------------------------------------------------------|
|-----------------------------------------------5----------|
|-----------------------------------------------5--5-------|
|--3---3----------3---3----------5---5---5------5--5-------|
|--1-x-1--1-3-1-0-1-x-1--1-3-5---3-x-3-x-3--5h7-5--3-------|
|----------------------------------------------------------|
          m m m m        m m m               m
                     Fill One
|----------------------------------------------------------|
|--------------5-6-5--6/8--5-------------------------------|
|---------5-5--5-7-5--7/9--5-------------------------------|
|--7---7--5-7-----------------5---5---5-------5--5---------|
|--5-x-5----------------------3-x-3-x-3--0-1--3--3---------|
|----------------------------------------------------------|
          m m                            m m

|---------------------------------------------------------------| Feel free to
|---------------------------------------------------------------| throw in a
|---------------------------------------------------------------| whammy dive here
|--3-3--3-2-----------------------------------------------------| if it pleases
|--1-1--1-0-----------------------------------------------------| you.
|---------------*/----------------------------------------------|


Verse 2

|----------------------------------------------------------|
|--3-----3-------------------------------3-----3-----------|
|--2-----2-------------------------------2-----2-----------|
|--0-----0------3---3----------3---3-----0-----0-----------|
|----0----------1-x-1--1-3-1-0-1-x-1--3----0---------------|
|------1----*/-------------------------------1----x/-------|
                       m m m m

|----------------------------------------------------------|
|-----------------------------------------------5----------|
|-----------------------------------------------5--5-------|
|--3---3----------3---3----------5---5---5------5--5-------|
|--1-x-1--1-3-1-0-1-x-1--1-3-5---3-x-3-x-3--5h7-5--3-------|
|----------------------------------------------------------|
          m m m m        m m m               m
                   Fill 2 (not sure if it's right, it's close)
|----------------------------------------------------------|
|----------------------------------------------------------|
|----------3h4p3---4p3---3---------------------------------|
|--7---7---------5-----5---5p3p2-------------5-------5-----|
|--5-x-5-------------------------5-5p3p2-----3-x-3-x-3-----|
|----------------------------------------5-----------------|


|----------------------------------------------------------| Threw in the
|----------------------------------------------------------| whammy dive cuz
|----------------------------------------------------------| it sounds good
|-------5-5--3-3--3--2-------------------------------------| there
|--0-1--3-3--1-1--1--0wwww---------------------------------|
|----------------------------------------------------------|


  Now before I go into the solo, I got a few things to state.  This solo is NOT 100%
I'm not Randy and I wasn't there so I am doing this to the best of my ability.  After he
the signature muted passage and flies up the neck and does the bend, my sequence after
isn't what he uses.  Close, but not it.  At the end when he's going down that dorian/
scale, mine isn't right but similar none-the-less.  Anyways onto one of the best solo's
 Enjoy his added hammer-on passage.  And he barely looks at the guitar.  Damn you Randy
put all to shame!

Solo 1

This requires sweep picking for it to sound right
|------10----------10----------10----------10--------------|
|----10--13p10---10--13p10---10--13p10---10--13p10---------|
|-12^^--------12^^--------12^^--------12^^-----------------|
|----------------------------------------------------------|
|----------------------------------------------------------|
|----------------------------------------------------------|


Not sure he uses this exact one.  Mute from G string down
|-13-10----10----------------------------------------------|
|-------13----13-10----10----------------------------------|
|-------------------12----12-10----10----------------------| mute
|-------------------------------12----12-10----10----------| mute
|-------------------------------------------12----12-------| mute
|----------------------------------------------------------| mute


    Once again not sure and still muting EADG strings
|----------------------------------------10----10----------|
|-------------------10-------------10-13----13-------------|
|-------10----10-12----12-10-12/14-------------------------| mute
|-10-12----12----------------------------------------------| mute
|----------------------------------------------------------| mute
|----------------------------------------------------------| mute


Ok the Spider on crank riff. It's close but not perfect
|-13p12p10-15p13p12-17p15p13-18p17p15-20p18p17-20^^-20^^r--|
|----------------------------------------------------------|
|----------------------------------------------------------|
|----------------------------------------------------------|
|----------------------------------------------------------|
|----------------------------------------------------------|


Ok this is a classic Rhoads legato run.  Not right but good.
|-20p18p17----17h18p17----17-----------------------------------|
|----------20----------20----20p18p17----17--------------------|
|-------------------------------------19----19p17--------------|
|-------------------------------------------------20p17h19p17--|
|--------------------------------------------------------------|
|--------------------------------------------------------------|


This is connected with the last run.  Pretty sweet      w. dips
|------------20^^-20p17h18p17----17------------------------20--|
|-----------------------------20----20p17h18p17h18p17--20-(20)-|
|--------------------------------------------------------------|
|----17--------------------------------------------------------|
|-19----19-----------------------------------------------------|
|--------------------------------------------------------------|


I put hammer ons here (he uses all picking).  Its sweet
|-13p10--10-----13p10--10-----13p10--10-----13p10--10-----------|
|------13--13p10-----13--13p10-----13--13p10-----13--13p10------|
|---------------------------------------------------------------|
|---------------------------------------------------------------|
|---------------------------------------------------------------|
|---------------------------------------------------------------|


Sweet f-ing run here all muted. Not sure if B strings right.
|-13p10--10------------------------------------------------|
|------13---13-11-10---------------------------------------|
|--------------------12-10-9--10-9-10--7-9-7--5-7-9--------|
|----------------------------------------------------------|
|----------------------------------------------------------|
|----------------------------------------------------------|
             m m m   m  m  m  m  m  m  m m m  m m m

The best legato riff I have EVER heard.  Use 3 pick strokes
|-----------------------------------------------8---a.h----|
|-5h6h8p5h6p5h6p5h6p5-8p6p5-8p6p5h6p5h6p5--8^^-(8)-(8r)----|
|----------------------------------------------------------|
|----------------------------------------------------------|
|----------------------------------------------------------|
|----------------------------------------------------------|

Not sure if this run is 100% correct, but check out the whammy run
|--------5-------------------------------------------------------|
|6p5--6p5-8p6p5-6p5-5--------------------------------n.h---n.h---|
|------------------7-7p5-5--------------2w--3w--5w--(5)w--(5)w---|
|-----------------------8-5-7-8-7-5--5w--------------------------|
|----------------------------------------------------------------|
|----------------------------------------------------------------|

Verse 3

|----------------------------------------------------------|
|--3-----3-------------------------------3-----3-----------|
|--2-----2-------------------------------2-----2-----------|
|--0-----0------3---3----------3---3-----0-----0-----------|
|----0----------1-x-1--1-3-1-0-1-x-1--3----0---------------|
|------1----*/-------------------------------1----*/-------|
                       m m m m

|----------------------------------------------------------|
|-----------------------------------------------5----------|
|-----------------------------------------------5--5-------|
|--3---3----------3---3----------5---5---5------5--5-------|
|--1-x-1--1-3-1-0-1-x-1--1-3-5---3-x-3-x-3--5h7-5--3-------|
|----------------------------------------------------------|
          m m m m        m m m               m


       Fill 3 Classic Randy tapping(don't think it's right)
|-----------------T------T-----T-----T-----T-----T----------|
|-----------------------------------------------------------| Bend G string
|-----------13^^--13p10h13p10h13p10h13p10h13p10h13p10-13^^--| up gradually
|--7---7----------------------------------------------------| then back down
|--5-x-5----------------------------------------------------| as you tap
|-----------------------------------------------------------|


Not sure if last chord is right.  Let it ring until Interlude.
|----------------------------------------------------------|
|----------2-----------------------------------------------|
|----------2-----------------------------------------------|
|--3-3--3--2-----------------------------------------------|
|--1-1--1--0-----------------------------------------------|
|----------------------------------------------------------|


Ok before the Interlude, I will say again because I know some ppl won't understand.
is NOT the interlude in the video.  I don't know it so I put the one I use.  Feel free to
the heavy chorus like he does sounds great (I use it).  If someone can successfully tab
that Interlude from the videoRIGHT, I would be most greatful.  Anyways...

Interlude

|-----------5---------5--------------------5-6-5-------5---|
|--3--5-6-8---8-6-5-----8-----------5--6-8-------8-6-5---8-|
|--2----------------7------0-2-3-5--5----------------------|
|--0-------------------------------------------------------|
|----------------------------------------------------------|
|----------------------------------------------------------|

|---------------------5----------5-------------------------|
|--3----3-5-6-5-3-------8--5-6-8---8-6-5-------------------|
|--3--5-----------5-3--------------------------------------|
|----------------------------------------------------------|
|----------------------------------------------------------|
|----------------------------------------------------------|

|-----------5---------5--------------------5-8-5-------6-5-|
|--3--5-6-8---8-6-5-----8-----------5--6-8-------8-6-5-----|
|--2----------------7------0-2-3-5--5----------------------|
|--0-------------------------------------------------------|
|----------------------------------------------------------|
|----------------------------------------------------------|

|---------------------5----------5-6-6---------------------|
|--3----3-5-6-5-3-------8--5-6-8---------------------------|
|--3--5-----------5-3--------------------------------------|
|----------------------------------------------------------|
|----------------------------------------------------------|
|----------------------------------------------------------|


Ok now before Solo 2, I must say there is at LEAST 2 parts I know are absolutely wrong.
will mention when they are when I get to them.  So I subbed in something I use that is
similar.  Feel free to send me an E-mail if you think you have it tabbed right.  Anyways onto the closer

Solo 2

Ok no tapping here.  NONE.  Don't be a B about it.
|-17p13---17p13---17p13---17p13---17p13---17p13---17p13---17p13---|
|------15------15------15------15------15------15------15------15-|
|-----------------------------------------------------------------|
|-----------------------------------------------------------------|
|-----------------------------------------------------------------|
|-----------------------------------------------------------------|

Still no tapping.
|-18p13---18p13---18p13---18p13---18p13---18p13---18p13---18p13---|
|------15------15------15------15------15------15------15------15-|
|-----------------------------------------------------------------|
|-----------------------------------------------------------------|
|-----------------------------------------------------------------|
|-----------------------------------------------------------------|


|-15p12---15p12---15p12---15p12---15p12---15p12---15p12---15p12---|
|------13------13------13------13------13------13------13------13-|
|-----------------------------------------------------------------|
|-----------------------------------------------------------------|
|-----------------------------------------------------------------|
|-----------------------------------------------------------------|


|-17p13---17p13---17p13---17p13---17p13---17p13---17p13---17p13---|
|------13------13------13------13------13------13------13------13-|
|-----------------------------------------------------------------|
|-----------------------------------------------------------------|
|-----------------------------------------------------------------|
|-----------------------------------------------------------------|


I like this part.  Only a few pick strokes ppl no cheating.
|--------------------------------------------|
|-15p16h15p16h15p16-16/18--16--15--16--------|
|-15h17p15h17p15h17-17/19--17--15--17--------|
|--------------------------------------------|
|--------------------------------------------|
|--------------------------------------------|

All alternate picking (tremelo picking w/e)  Randy throws in a twist
|-15-12---------12--9--9-10-12-10-12-13-12-13-15-13-15-17-15-17-18-|
|--\--\--11------\---\---------------------------------------------|
|---------\--------------------------------------------------------|
|------------------------------------------------------------------|
|------------------------------------------------------------------|
|------------------------------------------------------------------|

Continued alternate picking run.   w. dips
|-17-18-20-17-18-20---20^^rp17-------20----------|
|------------------------------20^^-(20)---------|
|------------------------------------------------|
|------------------------------------------------|
|------------------------------------------------|
|--------------------------------------------*/--|

Sweet little hammer on pull off run
|-9h10p9h10p9----------------------------------------10p9-10p9-12^^-|
|--------------10h11p10h11p10-------------------11h10---------------|
|-----------------------------9h10p9h10p9--10h9---------------------|
|-------------------------------------------------------------------|
|-------------------------------------------------------------------|
|-------------------------------------------------------------------|

Another descending dorian/phrygian run.  I love these runs
|--5h6p5-5-----------------------------------|
|-------8-8p6p5h6p5-5h6p5-5------------------|
|------------------7-----7-7p5-5-------------|
|-----------------------------8-8p7p5h7p5----|
|----------------------------------------8---|
|--------------------------------------------|


A sweet Ionian/Dorian run.  Don't worry no alternate picking.
|-------------------------------5h6h8-5h6p5-5--------------------------|
|--------------------------5h6h8-----8-----8-8p6p5---------------------|
|----------------2h3h5-5/7---------------------------------------------|
|-----------2h3h5------------------------------------------------------|
|------1h3h5-----------------------------------------------------------|
|-1h3h5----------------------------------------------------------------|

Notice the odd interval here.  He only picks once.  Good luck.
|------------------------------------------------------------------------------|
|-2h3p2h3p2h3p2/3h5p3h5p3h5p3/5h6p5h6p5h6p5/6h8p6h8p6h8p6/---------------------| cont.
|------------------------------------------------------------------------------| on
|----------------------------------------------------------------- next     |--| staff
|------------------------------------------------------------------------------|


Still going on that one pick stroke
|---------------------------------------------------------------|
|-8h10p8h10p8h10p8/10h11p10h11p10h11p10/11h13p11h13p11h13p11/---| cont.
|---------------------------------------------------------------| on
|---------------------------------------------------------------| next
|---------------------------------------------------------------| staff
|---------------------------------------------------------------|


And still on same pick stroke.  Done.  Whew.
|---------------------------------------------|
|-13h15p13h15p13h15p13/15h17p15h17p15h17p15---|
|---------------------------------------------|
|---------------------------------------------|
|---------------------------------------------|
|---------------------------------------------|


Ok sry but I g2g more later I swear.  Feel free to message me at
 I WILL finish this!!
Tap to rate this tab
# A B C D E F G H I J K L M N O P Q R S T U V W X Y Z