Song name
# A B C D E F G H I J K L M N O P Q R S T U V W X Y Z

Ozzy Osbourne - Ghost Behind My Eyes tab

GHOST BEHIND MY EYES
As recorded by Ozzy Osbourne
(From the 1995 Album OZZMOSIS)

	

Words and Music by Ozzy Osbourne, Mark Hudson, Steve Dudas

F5
1 3 3 x x x
	
G5
3 5 5 x x x
	
Gb5
2 4 4 x x x
	
E5
0 7 9 9 x x

Gtr I (Eb Ab Db Gb Bb Eb) - 'Untitled'
Gtr II (Eb Ab Db Gb Bb Eb) - 'Untitled'
Gtr III (Eb Ab Db Gb Bb Eb) - 'Untitled'
Gtr IV (Eb Ab Db Gb Bb Eb) - 'Untitled'
Gtr V (Eb Ab Db Gb Bb Eb) - 'Untitled'

 Intro
  Moderately Slow Q=72
    E           Asus2/C#     Dadd6         Asus2/C#
 4/4
  Gtr I
  a E   E E S S S S E   Q    S S E E S S a E S S E.     S
|---------0-0-----------0--|---------------------0--------|
|-------0-----0------------|-------0--------------------0-|
|-0h1----------------------|---------2-------2------------|
|-------------------2------|-----4-----4-------2----------|
|---------------3s4--------|-4s5---------5s4--------------|
|---0----------------------|------------------------------|
|
|   Gtr II
|   S S E E S S S S S S Q    S S E E S S a E S S S  S S S
|---------0-------------0--|---------------------0--------|
|-----------0-----------0--|-------0----------------0-----|
|---0h1-------1-------2-2--|---------2-------2--------2---|
|-------------------2------|-----4-----4-------2--------2-|
|---------------3s4--------|-4s5---------5s4--------------|
|---0---0------------------|------------------------------|


  E             Asus2/C#    Dadd6             Asus2/C#
  E S S E   S S S S E E E   S S E   S S S S a E E Q
|-------0-------------0---|-----------------------0--||
|-----------0---------0---|---------0-------------0--||
|---0h1-------1-------2-2-|-----------0-----------2--||
|-------------------2-----|-----4-------4-------2----||
|---------------3s4-------|-4s5-----------5-5s4------||
|-0-----------------------|--------------------------||
|
| E S S S S S S S S E Q     S S S S S S S S a E E Q
|---------0-----------0---|-----------------------0--||
|-------0---0---------0---|---------0-------------0--||
|---0h1-------1-------2---|-------0---0-----------2--||
|-------------------2-----|-----4-------4-------2----||
|---------------3s4-------|-4s5-----------5-5s4------||
|-0-----------------------|--------------------------||


   Verse
      E           Asus2/C#     Dadd6         Asus2/C#
    Gtr I
    a E   E E S S S S E   Q    S S E E S S a E S S E.     S
||----------0-0-----------0--|---------------------0--------|
||o-------0-----0------------|-------0--------------------0-|
||--0h1----------------------|---------2-------2------------|
||--------------------2------|-----4-----4-------2----------|
||o---------------3s4--------|-4s5---------5s4--------------|
||----0----------------------|------------------------------|
|
|     Gtr II
|     S S E E S S S S S S Q    S S E E S S a E S S S  S S S
||----------0-------------0--|---------------------0--------|
||o-----------0-----------0--|-------0----------------0-----|
||----0h1-------1-------2-2--|---------2-------2--------2---|
||--------------------2------|-----4-----4-------2--------2-|
||o---------------3s4--------|-4s5---------5s4--------------|
||----0---0------------------|------------------------------|


  E             Asus2/C#    Dadd6             Asus2/C#
  E S S E   S S S S E E E   S S E   S S S S a E E Q
|-------0-------------0---|-----------------------0--|
|-----------0---------0---|---------0-------------0--|
|---0h1-------1-------2-2-|-----------0-----------2--|
|-------------------2-----|-----4-------4-------2----|
|---------------3s4-------|-4s5-----------5-5s4------|
|-0-----------------------|--------------------------|
|
| E S S S S S S S S E Q     S S S S S S S S a E E Q
|---------0-----------0---|-----------------------0--|
|-------0---0---------0---|---------0-------------0--|
|---0h1-------1-------2---|-------0---0-----------2--|
|-------------------2-----|-----4-------4-------2----|
|---------------3s4-------|-4s5-----------5-5s4------|
|-0-----------------------|--------------------------|


    E           Asus2/C#     Dadd6         Asus2/C#
  a E   E E S S S S E   Q    S S E E S S a E S S E.     S
|---------0-0-----------0--|---------------------0--------|
|-------0-----0------------|-------0--------------------0-|
|-0h1----------------------|---------2-------2------------|
|-------------------2------|-----4-----4-------2----------|
|---------------3s4--------|-4s5---------5s4--------------|
|---0----------------------|------------------------------|
|
|   S S E E S S S S S S Q    S S E E S S a E S S S  S S S
|---------0-------------0--|---------------------0--------|
|-----------0-----------0--|-------0----------------0-----|
|---0h1-------1-------2-2--|---------2-------2--------2---|
|-------------------2------|-----4-----4-------2--------2-|
|---------------3s4--------|-4s5---------5s4--------------|
|---0---0------------------|------------------------------|


  E             Asus2/C#    Dadd6             Asus2/C#
  E S S E   S S S S E E E   S S E   S S S S a E E Q
|-------0-------------0---|-----------------------0--||
|-----------0---------0---|---------0-------------0--||
|---0h1-------1-------2-2-|-----------0-----------2--||
|-------------------2-----|-----4-------4-------2----||
|---------------3s4-------|-4s5-----------5-5s4------||
|-0-----------------------|--------------------------||
|
| E S S S S S S S S E Q     S S S S S S S S a E E Q
|---------0-----------0---|-----------------------0--||
|-------0---0---------0---|---------0-------------0--||
|---0h1-------1-------2---|-------0---0-----------2--||
|-------------------2-----|-----4-------4-------2----||
|---------------3s4-------|-4s5-----------5-5s4------||
|-0-----------------------|--------------------------||


 Pre-Chorus
  Cmaj7D        E                         Cmaj7D      A
  Gtrs I, II
  H    H        E. S Q  S S S S S S S S   H    H      E E H.
|-0----2------|-4-----------------------|-0----2----|-3-2-0-----||
|-0----3------|-5--5------0---0---0---0-|-0----3----|-2-2-2-----||
|-0----2------|-4----4------------------|-0----2----|-2-2-2-----||
|-2----0------|---------5---4---2---0---|-2----0----|-----------||
|-3-----------|-------------------------|-3---------|-----------||
|-------------|-------------------------|-----------|-----------||
|
| Gtr III
| H    Q.   E   H       S S S S S S S S   H    H      E E H.
|-------------|-0-----------------------|-----------|-----------||
|------3------|-0---------0---0---0---0-|------3----|-----------||
|-0----2------|-1-----------------------|-0----2----|-2-2-2-----||
|-2----0------|-2-------5---4---2---0---|-2----0----|-2-2-2-----||
|-3-----------|-2-----------------------|-3---------|-0-0-0-----||
|-----------0-|-0-----------------------|-----------|-----------||


 Chorus
  E       Badd4/D#       Asus2/C# B5          A                 Cmaj7D
  Q  S E.  E S S S S E   E E S E. E E S S E   Q.    E E E E E   H    H
|-0--0-----------0-----|-----0--------0-----|-----------------|-0----2----|
|-0----0-----------0---|-------0--------0---|-2---------------|-0----3----|
|-1------------4-----4-|---4--------4-----4-|-2---------------|-0----2----|
|-2----------4---------|--------------------|-2----/7-6-----5-|-2----0----|
|-2-------/6-----------|-4--------2---------|-0---------0-4---|-3---------|
|-0--------------------|--------------------|-----------------|-----------|
|
| H        H             H        H           Q.    E E E E E   H    H
|----------------------|--------------------|-----------------|-----------|
|----------------------|--------------------|-----------------|-----------|
|-9--------4-----------|-2--------4---------|-2---------------|-5----7----|
|-9--------4-----------|-2--------4---------|-2----/7-6-----5-|-5----7----|
|-7--------6-----------|-4--------2---------|-0---------0-4---|-3----5----|
|-0--------------------|--------------------|-----------------|-----------|


  E        Badd4/D#       Asus2/C#    B5          G    A7sus4   E
  E E S E.  E S S S S E   E S S S S E E E S S E   H    Q.   E   Q.   E E E E E
|-0---0-----------0-----|-------0---------0-----|-3----3------|-0--------------|
|-0-0---0-----------0---|---------0---------0---|-3----3------|-0--------3-----|
|-1-------------4-----4-|---2-------4---4-----4-|-0----2------|-1------0---0---|
|-2-----------4---------|-----2-----------------|-0----2------|-2----4-------4-|
|-2--------/6-----------|-4-----------2---------|-2----0------|-2--------------|
|-0---------------------|-----------------------|-3---------x-|-0--------------|
|
| H         H             H           H           H    Q.   E   W
|-----------------------|-----------------------|-------------|----------------|
|-----------------------|-----------------------|-------------|----------------|
|-9---------4-----------|-2-----------4---------|------2------|-9--------------|
|-9---------4-----------|-2-----------4---------|-5----2------|-9--------------|
|-7---------6-----------|-4-----------2---------|-5----0------|-7--------------|
|-0---------------------|-----------------------|-3---------0-|-0--------------|


  1.                               2.
  G    A7sus4   E                   G    A7sus4
  H    Q.   E   Q.    E E E E E     H    H
|-3----3------|-0----------------||-3----3----||
|-3----3------|-0---------------o||-3----3----||
|-0----2------|-1----------------||-0----2----||
|-0----2------|-2----/7-6-----5--||-0----2----||
|-2----0------|-2---------0-4---o||-2----0----||
|-3---------0-|-0----------------||-3---------||
|
| H    Q.   E   W                   H    H
|-------------|------------------||-----------||
|-------------|-----------------o||-----------||
|------2------|-9----------------||------2----||
|-5----2------|-9----------------||-5----2----||
|-5----0------|-7---------------o||-5----0----||
|-3---------0-|-0----------------||-3---------||


 Bridge
  F5                    G5                        Gb5
  Gtrs I, II
  Q   S S S S H             Q   S S S S H
|-----0-------0-----------|-----0-------0-----------|
|-------0-----0-----------|-------0-----0-----------|
|---------2---2-----------|---------4---4-----------|
|-----------3-3-----------|-----------5-5-----------|
|-------------------------|-------------------------|
|-------------------------|-------------------------|
|
| Gtr III
| W                         H           E Q.
|-------------------------|-------------------------|
|-------------------------|-------------------------|
|-------------------------|-------------------------|
|-------------------------|---------------5s========|
|-------------------------|---------------x---------|
|-------------------------|---------------3s========|
|
| Gtr IV
| PM  PM------|   PM--|     PM  PM------|   PM--|
| E E S S E   E E S S S S   E E S S E   E E S S S S
|-------------------------|-------------------------|
|-------------------------|-------------------------|
|-------------------------|-------------------------|
|-3-3-3-3-3---3-3-3-3-3s5-|-5-5-5-5-5---5-5-5-5-5s4-|
|-3-3-3-3-3---3-3-3-3-3s5-|-5-5-5-5-5---5-5-5-5-5s4-|
|-1-1-1-1-1---1-1-1-1-1s3-|-3-3-3-3-3---3-3-3-3-3s2-|


  F5                       G5
  Q   S S S S +E  Q.
|-----0----------------------|
|-------0--------------------|
|---------2------------------|
|-----------3-(3)-3----------|
|----------------------------|
|----------------------------|
|
| W
|----------------------------|
|----------------------------|
|----------------------------|
|-3--------------------------|
|----------------------------|
|-1--------------------------|
|
| PM  PM------|      PM--|
| E E S S E    E  E  S S S S
|----------------------------|
|----------------------------|
|----------------------------|
|-3-3-3-3-3----3--3--3-3-3s5-|
|-3-3-3-3-3----3--3--3-3-3s5-|
|-1-1-1-1-1----1--1--1-1-1s3-|


                        Gb5 F5                    G5
  Q   S S S S Q   S S S S   Q   S S E +H
|-----------------0-------|-------------------------|
|-----0---0---0-----0-----|-----0-------------------|
|-------4---4---------4---|-------2-----------------|
|-----------------------5s|=3-------3-(3)-----------|
|-------------------------|-------------------------|
|-------------------------|-------------------------|
|
| H           E Q.          W
|-------------------------|-------------------------|
|-------------------------|-------------------------|
|-------------------------|-------------------------|
|---------------5s========|=3-----------------------|
|---------------x---------|-------------------------|
|---------------3s========|=1-----------------------|
|
| PM  PM------|   PM--|     PM  PM----|     PM--|
| E E S S E   E E S S S S   E E S S E  E  E S S S S
|-------------------------|-------------------------|
|-------------------------|-------------------------|
|-------------------------|-------------------------|
|-5-5-5-5-5---5-5-5-5-5s4-|-3-3-3-3-3--3--3-3-3-3s5-|
|-5-5-5-5-5---5-5-5-5-5s4-|-3-3-3-3-3--3--3-3-3-3s5-|
|-3-3-3-3-3---3-3-3-3-3s2-|-1-1-1-1-1--1--1-1-1-1s3-|


                           Gtr V
  Q   S S S S H            H    E E E E
|-----0-------0----------|--------------||
|-------0-----0----------|--------------||
|---------4---4----------|--------4-4-4-||
|-----------5-5----------|--------------||
|------------------------|--------------||
|------------------------|--------------||
|
| W                        W
|------------------------|--------------||
|------------------------|--------------||
|------------------------|--------------||
|------------------------|--------------||
|------------------------|--------------||
|------------------------|--------------||
|
| PM  PM------|   PM--|
| E E S S E   E E S S E    W
|------------------------|--------------||
|------------------------|--------------||
|------------------------|--------------||
|-5-5-5-5-5---5-5-5-5-5\-|-5------------||
|-5-5-5-5-5---5-5-5-5-5\-|-5------------||
|-3-3-3-3-3---3-3-3-3-3\-|-3------------||


 Guitar Solo
  E           Badd4/D#      Asus2/C#       B5                Cmaj7D       E
  Gtr V
  H           H              H             Q.         +E     H    Q.      E
|-------------------------|--------------------------------|------------------|
|-9-----------7-----------|-10-------------9----------(9)\-|-1----3-------1---|
|-------------------------|--------------------------------|------------------|
|-------------------------|--------------------------------|------------------|
|-------------------------|--------------------------------|------------------|
|-------------------------|--------------------------------|------------------|
|
| Gtrs I, II
| E S S S S E E S S S S E    E S S S S S S E  S S S S  E     H    Q   +E  S S
|-------0-----------0-----|--------0--------------0--------|-0----2---(2)-0-0-|
|---------0-----------0---|----------0--------------0------|-0----3---(3)-0-0-|
|---4-------4---4-------4-|----2-------2------4--------0---|-0----2---(2)-1-1-|
|-----------------4-------|------2-------0------4----------|-2----0---(0)-2-2-|
|-----7-------6-----------|--4-------------2---------------|-3------------2-2-|
|-0-----------------------|--------------------------------|--------------0-0-|


                                              Badd4/D#
  Q.      E   E.     S E  E    a  H            H
|---------------------------|------------------------------|
|-0-------3s==9------9-9-10-|-10s12-----------10-----------|
|---------------------------|------------------------------|
|---------------------------|------------------------------|
|---------------------------|------------------------------|
|---------------------------|------------------------------|
|
| Gtr I
| Q   +E  S S E    E   E  E       E S S S S E  E S S S S E
|-0---(0)----------0--------|-----------0------------0-----|
|-0---(0)-----0--------0----|-------------0------------0---|
|-1---(1)-0h1-------------1-|-------4-------4----4-------4-|
|-2---(2)-------------------|----------------------4-------|
|-2---(2)-------------------|---------7--------6-----------|
|-0---(0)-------------------|-----0------------------------|
|
| Gtr II
| Q    E  S S S  S S S E  E       E S S S S E  E S S S S E
|-0----0--------------------|-----------0------------0-----|
|-0----0-------------0------|-------------0------------0---|
|-1----1--0h1----0h1---1--1-|-------4-------4----4-------4-|
|-2----2--------------------|----------------------4-------|
|-2----2--------------------|---------7--------6-----------|
|-0----0--------------------|-----0------------------------|


  Asus2/C#       B5
  Q.         E    Q.          +E
|-----------------------------------|
|-9----------9s==17----------(17)s==|
|-----------------------------------|
|-----------------------------------|
|-----------------------------------|
|-----------------------------------|
|
| E  S S S S S S  E  S S S S   E
|--------0---------------0----------|
|----------0---------------0--------|
|----2-------2-------4---------0----|
|------2-------0-------4------------|
|-4---------------2-----------------|
|-----------------------------------|
|
| E  S S S S S S  E  S S S S   E
|--------0---------------0----------|
|----------0---------------0--------|
|----2-------2-------4---------0----|
|------2-------0-------4------------|
|-4---------------2-----------------|
|-----------------------------------|


  Cmaj7  D       E                      Cmaj7D       E
  Q.   E Q.      E     H    +E  E E E   H    Q.      E     Q.   E  H
|--------------------|----------------|------------------|------------------|
|-5----8-7-------5---|-5----(5)-4-3-2-|-1----3-------1---|-0----3s=9--------|
|--------------------|----------------|------------------|------------------|
|--------------------|----------------|------------------|------------------|
|--------------------|----------------|------------------|------------------|
|--------------------|----------------|------------------|------------------|
|
| Gtrs I, II
| H      Q   +E  S S   W                H    Q   +E  S S   H      +E  Q.
|-0------2---(2)-0-0-|-0--------------|-0----2---(2)-0-0-|-0------(0)-------|
|-0------3---(3)-0-0-|-0--------------|-0----3---(3)-0-0-|-0------(0)-0-----|
|-0------2---(2)-1-1-|-1--------------|-0----2---(2)-1-1-|-1------(1)-------|
|-2------0---(0)-2-2-|-2--------------|-2----0---(0)-2-2-|-2------(2)-------|
|-3--------------2-2-|-2--------------|-3------------2-2-|-2------(2)-------|
|----------------0-0-|-0--------------|--------------0-0-|-0------(0)-------|


  Cmaj7        D              E        Asus2/C#
  Q.         E Q.         E   W
|---------------------------|-----------------------|
|-5---------/8-7---------\5-|-5---------------------|
|---------------------------|-----------------------|
|---------------------------|-----------------------|
|---------------------------|-----------------------|
|---------------------------|-----------------------|
|
| Gtr I
| H            H              H         E E   E   E
|-0------------2------------|-----------------------|
|-1------------3------------|-----------------0---0-|
|-0------------2------------|-1---------1-----------|
|-2------------0------------|-2---------2-2---------|
|-3-------------------------|-2---------2-----------|
|---------------------------|-0---------0-----------|
|
| Gtr II
| Q   S  E.    S  E. +Q       Q  S S E  E S S S S E
|---------------------------|-----------------------|
|-1-------------------------|-----------------0---0-|
|-0------------2-(2)-(2)----|-1--0h1--------2---2---|
|-2---0h=2-----2h=4--(4)----|-2------2----2---------|
|-3---3-(3)-----------------|-2--------/4-----------|
|---------------------------|-0---------------------|


  Dadd6           Asus2/C#
  +W
|------------------------------||
|-(5)--------------------------||
|------------------------------||
|------------------------------||
|------------------------------||
|------------------------------||
|
|  E  E   S S E   E E   Q
|-----------------------0------||
|---------0-------------0------||
|-----------2-----------2------||
|-----4-------4-----2----------||
|-/5--------------4------------||
|------------------------------||
|
|  E  S S S S S S E S S S S E
|------------------------------||
|---------0-------------0---0--||
|-------2---2---------2---2----||
|-----4-------4-----2----------||
|--5------------5-4------------||
|------------------------------||


 Verse
    E             Asus2/C#     Dadd6           Asus2/C#
  Gtr I
  a  E    E E S S S S E   Q     S  S E E S S a E S S E.     S
|-----------0-0-----------0--|-----------------------0--------|
|---------0-----0------------|---------0--------------------0-|
|-0h=1-----------------------|-----------2-------2------------|
|---------------------2------|-------4-----4-------2----------|
|-----------------3s4--------|--4s=5---------5s4--------------|
|----0-----------------------|--------------------------------|
|
|   Gtr II
|    S  S E E S S S S S S Q     S  S E E S S a E S S S  S S S
|-----------0-------------0--|-----------------------0--------|
|-------------0-----------0--|---------0----------------0-----|
|----0h=1-------1-------2-2--|-----------2-------2--------2---|
|---------------------2------|-------4-----4-------2--------2-|
|-----------------3s4--------|--4s=5---------5s4--------------|
|----0----0------------------|--------------------------------|
|
| Gtr V
|   +W                         +W
|----------------------------|--------------------------------|
|---(5)----------------------|-(5)----------------------------|
|----------------------------|--------------------------------|
|----------------------------|--------------------------------|
|----------------------------|--------------------------------|
|----------------------------|--------------------------------|


  E               Asus2/C#    Dadd6             Asus2/C#
   E  S S E   S S S S E E E   S S E   S S S S a E E Q
|---------0-------------0---|-----------------------0--|
|-------------0---------0---|---------0-------------0--|
|-----0h1-------1-------2-2-|-----------0-----------2--|
|---------------------2-----|-----4-------4-------2----|
|-----------------3s4-------|-4s5-----------5-5s4------|
|--0------------------------|--------------------------|
|
|  E  S S S S S S S S E Q     S S S S S S S S a E E Q
|-----------0-----------0---|-----------------------0--|
|---------0---0---------0---|---------0-------------0--|
|-----0h1-------1-------2---|-------0---0-----------2--|
|---------------------2-----|-----4-------4-------2----|
|-----------------3s4-------|-4s5-----------5-5s4------|
|--0------------------------|--------------------------|
|
| +W                          W
|---------------------------|--------------------------|
|-(5)-----------------------|--------------------------|
|---------------------------|--------------------------|
|---------------------------|--------------------------|
|---------------------------|--------------------------|
|---------------------------|--------------------------|


 Pre-Chorus
  Cmaj7D        E                         Cmaj7D      A
  Gtrs I, II
  H    H        E. S Q  S S S S S S S S   H    H      E E H.
|-0----2------|-4-----------------------|-0----2----|-3-2-0-----||
|-0----3------|-5--5------0---0---0---0-|-0----3----|-2-2-2-----||
|-0----2------|-4----4------------------|-0----2----|-2-2-2-----||
|-2----0------|---------5---4---2---0---|-2----0----|-----------||
|-3-----------|-------------------------|-3---------|-----------||
|-------------|-------------------------|-----------|-----------||
|
| Gtr III
| H    Q.   E   H       S S S S S S S S   H    H      E E H.
|-------------|-0-----------------------|-----------|-----------||
|------3------|-0---------0---0---0---0-|------3----|-----------||
|-0----2------|-1-----------------------|-0----2----|-2-2-2-----||
|-2----0------|-2-------5---4---2---0---|-2----0----|-2-2-2-----||
|-3-----------|-2-----------------------|-3---------|-0-0-0-----||
|-----------0-|-0-----------------------|-----------|-----------||


   Chorus
    E       Badd4/D#       Asus2/C# B5          A
    Q  S E.  E S S S S E   E E S E. E E S S E   Q.    E E E E E   3x
||--0--0-----------0-----|-----0--------0-----|-------------------||
||o-0----0-----------0---|-------0--------0---|-2----------------o||
||--1------------4-----4-|---4--------4-----4-|-2-----------------||
||--2----------4---------|--------------------|-2----/7-6-----5---||
||o-2-------/6-----------|-4--------2---------|-0---------0-4----o||
||--0--------------------|--------------------|-------------------||
|
|   H        H             H        H           Q.    E E E E E   3x
||-----------------------|--------------------|-------------------||
||o----------------------|--------------------|------------------o||
||--9--------4-----------|-2--------4---------|-2-----------------||
||--9--------4-----------|-2--------4---------|-2----/7-6-----5---||
||o-7--------6-----------|-4--------2---------|-0---------0-4----o||
||--0--------------------|--------------------|-------------------||


  G    A7sus4   E                G    A7sus4   E
  H    Q.   E   Q.   E E E E E   H    Q.   E   Q.   E E E E E
|-3----3------|-0--------------|-3----3------|-0---------------|
|-3----3------|-0--------3-----|-3----3------|-0--------3------|
|-0----2------|-1------0---0---|-0----2------|-1------0---0----|
|-0----2------|-2----4-------4-|-0----2------|-2----4-------4--|
|-2----0------|-2--------------|-2----0------|-2---------------|
|-3---------x-|-0--------------|-3---------x-|-0---------------|
|
| H    Q.   E   W                H    Q.   E   W
|-------------|----------------|-------------|-----------------|
|-------------|----------------|-------------|-----------------|
|------2------|-9--------------|------2------|-9---------------|
|-5----2------|-9--------------|-5----2------|-9---------------|
|-5----0------|-7--------------|-5----0------|-7---------------|
|-3---------0-|-0--------------|-3---------0-|-0---------------|


  G    A7sus4   E                G    A7sus4
  H    Q.   E   Q.   E E E E E   H    Q.   E
|-3----3------|-0--------------|-3----3------|
|-3----3------|-0--------3-----|-3----3------|
|-0----2------|-1------0---0---|-0----2------|
|-0----2------|-2----4-------4-|-0----2------|
|-2----0------|-2--------------|-2----0------|
|-3---------x-|-0--------------|-3---------x-|
|
| H    Q.   E   W                H    Q.   E
|-------------|----------------|-------------|
|-------------|----------------|-------------|
|------2------|-9--------------|------2------|
|-5----2------|-9--------------|-5----2------|
|-5----0------|-7--------------|-5----0------|
|-3---------0-|-0--------------|-3---------0-|


  E
  Gtr I
  H.         S  E.        E    E   E.   S  E E   Q
|-0----------0---------|-----------0-------------0---|
|-0-------------0------|-------------------------0---|
|-1--------------------|-------------------------2---|
|-2--------------------|-------4-------------2-------|
|-2--------------------|-/5-------------4s=5---------|
|-0--------------------|-----------------------------|
|
| Gtr II
| H      Q  +S  S  S S    S  S S S S  E S  E S S E E
|-0--------------------|-----------0-------------0---|
|-0--------------------|--------------0----------0---|
|-1--------------------|---------x------0------2-----|
|-2------------------2-|-------4-------------2-------|
|-2-----/4--(4)-4--4---|--4s=5------------/4-------2-|
|-0--------------------|-----------------------------|
|
| Gtr III
| W                      +W
|----------------------|-----------------------------|
|----------------------|-----------------------------|
|----------------------|-----------------------------|
|-2--------------------|-(2)-------------------------|
|-2--------------------|-(2)-------------------------|
|-0--------------------|-(0)-------------------------|


                               H.=H
  E S S S E   S S S E   Q      E E E E +H
|---------0-------------0--|------------------*|
|-------0-----0---------0--|---------0-(0)----*|
|---0-1-----------------2--|-------0----------*|
|-------------------2------|-----4------------*|
|---------------3s4--------|---5--------------*|
|--------------------------|------------------*|
|
| E S S S S S S S S S S Q    a E E E E +H
|---------0-------------0--|------------------*|
|-------0---0-----------0--|---------0-(0)----*|
|---0h1-------1-------2----|-------0----------*|
|-------------------2------|-----4------------*|
|---------------3s4--------|-4s5--------------*|
|-0------------------------|------------------*|
|
| W                            W
|--------------------------|------------------*|
|--------------------------|------------------*|
|--------------------------|------------------*|
|--------------------------|------------------*|
|--------------------------|------------------*|
|--------------------------|------------------*|



Duration Legend
---------------
W - whole; H - half; Q - quarter; E - 8th; S - 16th; T - 32nd; X - 64th; a - acciaccatura
+ - note tied to previous; . - note dotted; .. - note double dotted
Uncapitalized letters represent notes that are staccato (1/2 duration)
Irregular groupings are notated above the duration line
Duration letters will always appear directly above the note/fret number it represents the
duration for.  Duration letters with no fret number below them represent rests.  Multi-
bar rests are notated in the form Wxn, where n is the number of bars to rest for.  Low
melody durations appear below the staff

Tablature Legend
----------------
 h   - hammer-on
 p   - pull-off
 b   - bend
 pb  - pre-bend
 r   - bend release (if no number after the r, then release immediately)
 /\  - slide into or out of (from/to "nowhere")
 s   - legato slide
 S   - shift slide
 - natural harmonic
[n]  - artificial harmonic
n(n) - tapped harmonic
 ~   - vibrato
 tr  - trill
 T   - tap
 TP  - trem. picking
 PM  - palm muting
\n/  - tremolo bar dip; n = amount to dip
 \n  - tremolo bar down
 n/  - tremolo bar up
/n\  - tremolo bar inverted dip
 =   - hold bend; also acts as connecting device for hammers/pulls
 <> - volume swell (louder/softer)
 x   - on rhythm slash represents muted slash
 o   - on rhythm slash represents single note slash

Misc Legend
-----------
 |  - bar
||  - double bar
||o - repeat start
o|| - repeat end
*|  - double bar (ending)
 :  - bar (freetime)
 $  - Segno
 &  - Coda
Tempo markers -  = BPM(8/16=s8/s16), where s8 = swing 8ths, s16 = swing 16ths

Tap to rate this tab
# A B C D E F G H I J K L M N O P Q R S T U V W X Y Z