Song name
# A B C D E F G H I J K L M N O P Q R S T U V W X Y Z

Ozzy Osbourne - Not Going Away tab

Not Going Away

Tuning: Drop D down 1 step. CGCFAD

Intro: Play this with fuzz

--------------------------------------| X2
--------------------------------------|
--------------------------------------|
--2-2-5h7-2--2-5h7-2--2-5h7-2-0-------|
--2-2-5h7-2--2-5h7-2--2-5h7-2-0-5~~~--|
--2-2-5h7-2--2-5h7-2--2-5h7-2-0-------|

Pre-verse:

------------------------------------|
------------------------------------|
------------------------------------|
--2-2-5h7-2--2-5h7-2-2-5h7-2-0------|
--2-2-5h7-2--2-5h7-2-2-5h7-2-0-5~~--|
--2-2-5h7-2--2-5h7-2-2-5h7-2-0------|

------------------------------------|
------------------------------------|
------------------------------------|
--2-2-5h7-2--2-5h7-2--2-5h7-2-0-PH--|
--2-2-5h7-2--2-5h7-2--2-5h7-2-0-5~~-|
--2-2-5h7-2--2-5h7-2--2-5h7-2-0-----|

Verse:

--------------------------------------------| X4
--------------------------------------------|
--------------------------------------------|
--2-2-----0-1-2-2-----0-1-2-----------------|
--2-2-----0-1-2-2-----0-1-2-5/6-5-----PH----|
--2-2-2/3-0-1-2-2-2/3-0-1-2-------8-7-5~~~--|

Pre-chorus:

---------------------|------------------|
---------------------|------------------|
---------------------|------------------|
--7/9-9-9-9-9-9-9-9--|-7-7-7-7-7-7-7-7--|
--X-X-X-X-X-X-X-X-X--|-X-X-X-X-X-X-X-X--|
--7/9-9-9-9-9-9-9-9--|-7-7-7-7-7-7-7-7--|

-------------------|---------------------------|
-------------------|---------------------------|
-------------------|-2-2-2b4-2-0---0-4p2p0-----|
--5-5-5-5-5-2-4-5--|-2-2---------2-------------|
--X-X-X-X-X-2-4-5--|-0-0-----------------------|
--5-5-5-5-5-2-4-5--|-----------------------5\--|

Chorus: (repeat the pre-verse 2X)

Repeat intro.

Repeat verse.

Repeat Pre-chorus.

Repeat Chorus.

Solo: Play this very fast

------------------------------------|
-------12-15-------12-15--------15--|
-14b16-------14b16-------14b16~-----|
------------------------------------|
------------------------------------|
------------------------------------|

---------------------------------------------------------------------------|
-------12-15-------12-15-------12-15-------12-15-------12-15--------12--15-|
-14b16-------14b15-------14b16-------14b16-------14b16--------14b16--------|
---------------------------------------------------------------------------|
---------------------------------------------------------------------------|
---------------------------------------------------------------------------|

-------------|
----15b17~~--|
-12----------|
-------------|
-------------|
-------------|

---------12-15-------12-15-------12-17-------12-17-------12-15-------12-17-|
-3/12-15-------12-15-------12-15-------12-15-------12-15-------12-15-------|
---------------------------------------------------------------------------|
---------------------------------------------------------------------------|
---------------------------------------------------------------------------|
---------------------------------------------------------------------------|

-------12-15-12-12-12-12-12-12-15-12----12-12-12---------------------------|
-12-15-------------------------------15----------15b17~~~------------------|
---------------------------------------------------------------------------|
---------------------------------------------------------------------------|
---------------------------------------------------------------------------|
---------------------------------------------------------------------------|

-------14--14b15-14-14-14-15r14--------|
-----12-------------PH-PH--------------|
---12---------------------------12~~~--|
-14------------------------------------|
---------------------------------------|
---------------------------------------|
                                                       Hold bend
-14-------------17-18-------------19-20-------------21-22b24-22~~~---------|
----13-------16-------17-------18-------19-------20------------------------|
-------12-15-------------16-17-------------18-19---------------------------|
---------------------------------------------------------------------------|
---------------------------------------------------------------------------|
---------------------------------------------------------------------------|

---------15-18-17-15-------17-15-------17-15-18-15-------17-15-17-15-------|
-3/15-17-------------17-15-------17-15-------------17-15-------------17-15-|
---------------------------------------------------------------------------|
---------------------------------------------------------------------------|
---------------------------------------------------------------------------|
---------------------------------------------------------------------------|

-17-15-------17-15-18-15-17-15-------15-12-------15-12-------15------------|
-------17-15-------------------17-15-------15-12-------15-12-15-12---------|
-------------------------------------------------------------------12-13---|
---------------------------------------------------------------------------|
---------------------------------------------------------------------------|
---------------------------------------------------------------------------|

-12-10-------12-8----------------------------------------------------------|
-------12-10------12-9------12-9-------------------------------------------|
-----------------------12-9------12-9------12-----------------11-12-14-12--|
--------------------------------------12-9----------12/15---12-------------|
----------------------------------------------10h12-------14---------------|
---------------------------------------------------------------------------|

--------------------------------------------------------|
-14-12-------17-15----15-17-17----15b17-15pb17~~-17r15--|
-------14/16-------16----------16-----------------------|
--------------------------------------------------------|
--------------------------------------------------------|
--------------------------------------------------------|

-------19b22-22r19-19pb18-19-18-17-|-15-17-17b19-17-15-17b19-15b17r15------| End solo
-14/17-----------------------------|----------------------------------15~~-|
-----------------------------------|----------------------------------12~~-|
-----------------------------------|---------------------------------------|
-----------------------------------|---------------------------------------|
-----------------------------------|---------------------------------------|

That covers all of the song.

I'll post the whole Black Rain album tab later
Tap to rate this tab
# A B C D E F G H I J K L M N O P Q R S T U V W X Y Z