Guitaretab - guitar tabs
Song name
# A B C D E F G H I J K L M N O P Q R S T U V W X Y Z

Ozzy Osbourne - Dont Blame Me tab

Song: Don't Blame Me
Band: Ozzy Osbourne
Album: No More Tears (1991)
Tabbed by: Brian-guitarist

Key:
/............slide up
\............slide down
h............hammeron
p............pulloff
b............bend
..........pinch harmonic
n*...........semi harmonic

Intro:

e|------------------------------------------------------|
B|------------------------------------------------------|
G|---2-2---5----2-2--7-7-----------2-2---5----2-2-------|
D|---2-2---5-5--2-2--7-7-(3 times)-2-2---5-5--2-2--2--5-|
A|-\-0-0--\3-5--0-0--5-5-----------0-0--\3-5--0-0--2--5-|
E|-----------3-----------------------------3-------0--3-|

Main Riff:

e|----------------------------------------------|
B|----------------------------------------------|
G|-2---------------------5----------------------|
D|-2--777-555-777-5557---5-777-555-777-5557-----|
A|-0---------------------3----------------------|
E|----------------------------------------------|
Main Riff cont.
e|----------------------------------------------|
B|----------------------------------------------|
G|----------------------2---------------5-5-----|
D|--5-777-555-777-5557--2-777-555-------5-5-----|x2
A|--5-------------------0---------------3-3-----|
E|--3-----------------------------0-3-5---------|

Just before the second verse, you end the riff with:
e|----------------------------------------------|
B|----------------------------------------------|
G|--7--5----------------------------------------|
D|--7--5----------------------------------------|
A|--5--3----------------------------------------|
E|----------------------------------------------|

Interlude:

e|----------------------------------------------|
B|----------------------------------------------|
G|-7-----5--7--5--2-2---5---2-2-----------------|
D|-7-----5--7--5--2-2---5-5-2-2--5-5------------|
A|-5---3-3--5--3--0-0--\3-5-0-0--5-5------------|
E|------------------------3------3-3------------|
Interlude cont.
e|----------------------------------------------|
B|----------------------------------------------|
G|-7----5--7--5---------------------------------|
D|-7----5--7--5---------------------------------|
A|-5--3-3--5--3---------------------------------|
E|----------------------------------------------|

Chorus:

e|----------------------------------------------|
B|----------------------------------------------|
G|-2-2---7--------7--2-2---7--------------------|
D|-2-2---7--5-5---7--2-2---7--5--2--------------|
A|-0-0--/5--5-5--/5--0-0--/5--5--2--------------|
E|----------3-3---------------3--0--------------|
Chorus cont.
e|----------------------------------------------|
B|----------------------------------------------|
G|-2-2---7--------7--2--------------------------|
D|-2-2---7--5-5---7--2---5----------------------|
A|-0-0--/5--5-5--/5--0---5----------------------|
E|----------3-3----------3----------------------|
[ Tab from: http://www.guitaretab.com/o/ozzy-osbourne/93202.html ]
Bridge (part one and outro):
e|----------------------------------------------|
B|----------<3>-1-------------------------------|
G|-2-2---2---------2-2---2----------------------|
D|-2-2---2---------2-2---2----------------------|x3
A|-0-0---0---------0-0---0----------------------|
E|-----3---------------3---0-1-2-3--------------|
Bridge cont.
e|----------------------------------------------|
B|---------<3>-1--------------------------------|
G|-2-2---2--------2-2---2-2---------------------|
D|-2-2---2--------2-2---2-2---------------------|
A|-0-0---0--------0-0---0-0---------------------|
E|-----3--------------3-------------------------|

Bridge (second part):
e|-----------------------------------------------------|
B|-----------------------------------------------------|
G|--4-2-9-7-9--9-11-7-2-4--2-2-2-4---------------------|
D|--4-2-9-7-9--9-11-7-2-4--2-2-2-4---------------------|
A|-\2-0-7-5-7--7--9-5-0-2--0-0-0-2--2-2-<5>-2-2-<5>----|
E|-----------------------------------------------------|

I don't know the exact solo, but I know that it starts in a simple F# pentatonic 
on the twelfth frett).

Then:
e|----------------------------------------------|
B|----------------------------------------15b17-|
G|--7b9-10b12-7b9-7b9-10b12-12b14--13b15--------|
D|----------------------------------------------|
A|----------------------------------------------|
E|----------------------------------------------|
solo cont.
e|----------------------------------------------|
B|----------------------------------------------|
G|-14b16-14-12-14-12----------------------------|
D|-------------------14-12h14-12--14------------|
A|----------------------------------------------|
E|----------------------------------------------|

e|-15-12-15-12-------15-12-15-12-------15-12-15-12----------|
B|-------------15-12-------------15-12-------------15-12----|
G|----------------------------------------------------------|
D|----------------------------------------------------------|
A|----------------------------------------------------------|
E|----------------------------------------------------------|

e|-15-12-15-12--------17-15-17-15-------17-15-17-15---------|
B|-------------15-12--------------17-15-------------17-15---|
G|----------------------------------------------------------|
D|----------------------------------------------------------|
A|----------------------------------------------------------|
E|----------------------------------------------------------|

e|-17h20p17h20p17h2017h20p17--------------------|
B|---------------------------20b22--------------|
G|----------------------------------------------|
D|----------------------------------------------|
A|----------------------------------------------|
E|----------------------------------------------|

Those are all of the riffs. Just listen to the song for timing. This is a pretty cool 
I'm not gonna tab what i think is the beginning of the solo because everybody who looked 
it would get confused. So this is all. Rock on!
Related for Dont Blame Me tab
Dont Blame Me chords by Ozzy Osbourne