Song name
# A B C D E F G H I J K L M N O P Q R S T U V W X Y Z

P Diddy - Through The Pain tab

-------------------------------------------------------------------------------
		      Through The Pain - P Diddy
-------------------------------------------------------------------------------
Tabbed by: Kroach
Email: mxhall@gmail.com

Tuning: EADGBe

Note : This is one way of playing the main melody of the song on a guitar.
       If you want to sound like the original track you'll have to 
       fool around with some effects.

       For the strum pattern, you can either follow the one below with all notes
       with the same value, and accents on certain notes. On the original track
       each note/chord is played 8 times.

       Just repeat the following sequence.

   >                  >                 >
e|---------------------------------------------------------------------------|
B|-11-11-11-11-11-11--9--9--9--9--9--9--9--9--9--9---------------------------|
G|-10-10-10-10-10-10--10-10-10-10-10-10-10-10-10-10--------------------------|
D|-x--x--x--x--x--x---x--x--x--x--x--x--x--x--x--x---------------------------|
A|-8--8--8--8--8--8---8--8--8--8--8--8--8--8--8--8---------------------------|
E|---------------------------------------------------------------------------|
   >                  >                 >
e|---------------------------------------------------------------------------|
B|-9--9--9--9--9--9---8--8--8--8--8--8--8--8--8--8---------------------------|
G|-8--8--8--8--8--8---8--8--8--8--8--8--8--8--8--8---------------------------|
D|-x--x--x--x--x--x---x--x--x--x--x--x--x--x--x--x---------------------------|
A|-6--6--6--6--6--6---6--6--6--6--6--6--6--6--6--6---------------------------|
E|---------------------------------------------------------------------------|
   >                  >                 >
e|---------------------------------------------------------------------------|
B|-8--8--8--8--8--8---6--6--6--6--6--6--6--6--6--6---------------------------|
G|-6--6--6--6--6--6---6--6--6--6--6--6--6--6--6--6---------------------------|
D|-x--x--x--x--x--x---x--x--x--x--x--x--x--x--x--x---------------------------|
A|-4--4--4--4--4--4---4--4--4--4--4--4--4--4--4--4---------------------------|
E|---------------------------------------------------------------------------|
   >                  >                 >
e|---------------------------------------------------------------------------|
B|-6--6--6--6--6--6---4--4--4--4--4--4--4--4--4--4---------------------------|
G|-5--5--5--5--5--5---5--5--5--5--5--5--5--5--5--5---------------------------|
D|-x--x--x--x--x--x---x--x--x--x--x--x--x--x--x--x---------------------------|
A|-3--3--3--3--3--3---3--3--3--3--3--3--3--3--3--3---------------------------|
E|---------------------------------------------------------------------------|
   >                  >                 >
e|---------------------------------------------------------------------------|
B|-4--4--4--4--4--4---2--2--2--2--2--2--2--2--2--2---------------------------|
G|-3--3--3--3--3--3---3--3--3--3--3--3--3--3--3--3---------------------------|
D|-x--x--x--x--x--x---x--x--x--x--x--x--x--x--x--x---------------------------|
A|-1--1--1--1--1--1---1--1--1--1--1--1--1--1--1--1---------------------------|
E|---------------------------------------------------------------------------|
   >                  >                 >
e|---------------------------------------------------------------------------|
B|---------------------------------------------------------------------------|
G|-6--6--6--6--6--6---5--5--5--5--5--5--5--5--5--5---------------------------|
D|-6--6--6--6--6--6---6--6--6--6--6--6--6--6--6--6---------------------------|
A|-x--x--x--x--x--x---x--x--x--x--x--x--x--x--x--x---------------------------|
E|-4--4--4--4--4--4---4--4--4--4--4--4--4--4--4--4---------------------------|
   >                  >              > 
e|---------------------------------------------------------------------------|
B|---------------------------------------------------------------------------|
G|-5--5--5--5--5--5---3--3--3--3--3--3--3--3--3--3---------------------------|
D|-5--5--5--5--5--5---5--5--5--5--5--5--5--5--5--5---------------------------|
A|-x--x--x--x--x--x---x--x--x--x--x--x--x--x--x--x---------------------------|
E|-3--3--3--3--3--3---3--3--3--3--3--3--3--3--3--3---------------------------|
   >                  >              >
e|---------------------------------------------------------------------------|
B|---------------------------------------------------------------------------|
G|-5--5--5--5--5--5---3--3--3--3--3--3--3--3--3--3---------------------------|
D|-5--5--5--5--5--5---5--5--5--5--5--5--5--5--5--5---------------------------|
A|-x--x--x--x--x--x---x--x--x--x--x--x--x--x--x--x---------------------------|
E|-3--3--3--3--3--3---3--3--3--3--3--3--3--3--3--3---------------------------|

| >  Accent (suggestions)
| x  Mute note
===============================================================================
Tap to rate this tab
# A B C D E F G H I J K L M N O P Q R S T U V W X Y Z