Song name
# A B C D E F G H I J K L M N O P Q R S T U V W X Y Z

P I L - Disappointed tab

Disappointed - Devotchkas - Annihilation

Intro/Verse
e|----------------|
b|----------------|
g|--10--8---------|
d|--10--8--8--11--|
a|---8--6--8--11--|
E|---------6---9--|

Chorus
e|--------|----------------|
b|--------|----------------|
g|-----8--|--10--8---------|
d|--5--8--|--10--8--8--11--|
a|--5--6--|---8--6--8--11--|
E|--3-----|---------6---9--|
Tap to rate this tab
# A B C D E F G H I J K L M N O P Q R S T U V W X Y Z