Song name
# A B C D E F G H I J K L M N O P Q R S T U V W X Y Z

P O D - Lie Down tab

 
Artist: P.O.D.
Song: Lie down
Album: The Fundamental Elements of Southtown



E |---------------------------------------------------------|E
A |---------------------------------------------------------|A
D |---------------------------------------------------------|D
G |---------------------------------------------------------|G
B |--------------------------------------3-3-3--------------|B
E |-5\3-3-3-3-3\5-3-3-3-3-3\5-3-3-3-3-3--------1-1-1--------|E


E |---------------------------------------------------------|E
A |---------------------------------------------------------|A
D |---------------------------------------------------------|D
G |---------------------------------------------------------|G
B |--------------------------------------3-3-3--------------|B
E |-5\3-3-3-3-3\5-3-3-3-3-3\5-3-3-3-3-3--------1-1-1--------|E

              This changes to the chorus when it goes "when i lie down"
Tap to rate this tab
# A B C D E F G H I J K L M N O P Q R S T U V W X Y Z