Song name
# A B C D E F G H I J K L M N O P Q R S T U V W X Y Z

P O D - Set It Off tab

Help us improve GuitareTab! Take a short survey!
E||-----------------------|
B||-----------------------|
G||---------------2--x--4-|
D||------4-x-x----2--x--4-|
A||------4-x-x----0--x--2-|
E||0-2-0-2-x-x------------|

more to come later

main lick is

E||---------------|
B||---------------|
G||----4----2-- --|
D||2s4---4--------| s means slide just in case your an idiot
A||---------------|
E||---------------|
Related for Set It Off tab