Song name
# A B C D E F G H I J K L M N O P Q R S T U V W X Y Z

P O D - Satellite tab

h-----hammer on
p-----pull off
PM----palm mute
/-----slide up
\-----slide down

 PM.....      PM....      PM..   PM.......      PM....      PM..
e|---------------------------------|---------------------------------|
B|---------------------------------|---------------------------------|
G|-------5-5-5-------5-5-5-----5---|-------2-2-2-------2-2-2-----2-2-|
D|-------7-7-7-------7-7-7-----7---|-------3-3-3-------3-3-3-----3-3-|
A|-5-5-5-------5-5-5-------5-5---0-|-1-1-1-------1-1-1-------1-1-----|
E|---------------------------------|---------------------------------|

 PM.....      PM....      PM..  PM........       PM...      PM..
e|---------------------------------|---------------------------------|
B|---------------------------------|---------------------------------|
G|-------2-2-2-------2-2-2-----2---|-------2-2-2-------2-2-2-----2---|
D|-------3-3-3-------3-3-3-----3---|-------3-3-3-------3-3-3-----3---|
A|-------------------------------0-|-1-1-1-------1-1-1-------1-1-----|
E|-3-3-3-------3-3-3-------3-3-----|---------------------------------|


e|-------------------------------------------------------------------|
B|----------------------------------------------13-13-13-13----------|
G|-5/7-7-5/7-5/7--7-7-7---3/5-5-5---12-12-12-13-------------12-12----|
D|-5/7-7-5/7-5/7--7-7-7---3/5-5-5------------------------------------|
A|-3/5-5-3/5-3/5--5-5-5---1/3-3-3------------------------------------|
E|-------------------------------------------------------------------|


e|----------------------------------------------------------|
B|----------------------------------------------------------|
G|------------------------0----2-0h2p0---0---2-2-2-2-2-2----|
D|--3/5-5-3/5-3/5--5-5-5--0------------3---3-2-3-3-3-3-3----|
A|--3/5-5-3/5-3/5--5-5-5---------------------1-1-1-1-1-1----|
E|--1/3-3-1/3-1/3--3-3-3------------------------------------|


 PM.....      PM....      PM..   PM.......      PM....      PM..
e|---------------------------------|---------------------------------|
B|---------------------------------|---------------------------------|
G|-------5-5-5-------5-5-5-----5---|-------2-2-2-------2-2-2-----2-2-|
D|-------7-7-7-------7-7-7-----7---|-------3-3-3-------3-3-3-----3-3-|
A|-5-5-5-------5-5-5-------5-5---0-|-1-1-1-------1-1-1-------1-1-----|
E|---------------------------------|---------------------------------|


 PM.....      PM....      PM..  PM........       PM...      PM..
e|---------------------------------|---------------------------------|
B|---------------------------------|---------------------------------|
G|-------2-2-2-------2-2-2-----2---|-------2-2-2-------2-2-2-----2---|
D|-------3-3-3-------3-3-3-----3---|-------3-3-3-------3-3-3-----3---|
A|-------------------------------0-|-1-1-1-------1-1-1-------1-1-----|
E|-3-3-3-------3-3-3-------3-3-----|---------------------------------|


 PM.....      PM....      PM..   PM.......      PM....      PM..
e|---------------------------------|---------------------------------|
B|---------------------------------|---------------------------------|
G|-------5-5-5-------5-5-5-----5---|-------2-2-2-------2-2-2-----2-2-|
D|-------7-7-7-------7-7-7-----7---|-------3-3-3-------3-3-3-----3-3-|
A|-5-5-5-------5-5-5-------5-5---0-|-1-1-1-------1-1-1-------1-1-----|
E|---------------------------------|---------------------------------|


 PM.....      PM....      PM..  PM........       PM...      PM..
e|---------------------------------|---------------------------------|
B|---------------------------------|---------------------------------|
G|-------2-2-2-------2-2-2-----2---|-------2-2-2-------2-2-2-----2---|
D|-------3-3-3-------3-3-3-----3---|-------3-3-3-------3-3-3-----3---|
A|-------------------------------0-|-1-1-1-------1-1-1-------1-1-----|
E|-3-3-3-------3-3-3-------3-3-----|---------------------------------|


 PM.....      PM....      PM..   PM.......      PM....      PM..
e|---------------------------------|---------------------------------|
B|---------------------------------|---------------------------------|
G|-------5-5-5-------5-5-5-----5---|-------2-2-2-------2-2-2-----2-2-|
D|-------7-7-7-------7-7-7-----7---|-------3-3-3-------3-3-3-----3-3-|
A|-5-5-5-------5-5-5-------5-5---0-|-1-1-1-------1-1-1-------1-1-----|
E|---------------------------------|---------------------------------|


 PM.....      PM....      PM..  PM........       PM...      PM..
e|---------------------------------|---------------------------------|
B|---------------------------------|---------------------------------|
G|-------2-2-2-------2-2-2-----2---|-------2-2-2-------2-2-2-2-2-2---|
D|-------3-3-3-------3-3-3-----3---|-------3-3-3-------3-3-3-3-3-3---|
A|-------------------------------0-|-1-1-1-------1-1-1---------------|
E|-3-3-3-------3-3-3-------3-3-----|---------------------------------|


e|-------------------------------------------------------------------|
B|----------------------------------------------13-13-13-13----------|
G|-5/7-7-5/7-5/7--7-7-7---3/5-5-5---12-12-12-13-------------12-12----|
D|-5/7-7-5/7-5/7--7-7-7---3/5-5-5------------------------------------|
A|-3/5-5-3/5-3/5--5-5-5---1/3-3-3------------------------------------|
E|-------------------------------------------------------------------|


e|----------------------------------------------------------|
B|----------------------------------------------------------|
G|------------------------0----2-0h2p0---0-----2-2-2-2-2-2--|
D|--3/5-5-3/5-3/5--5-5-5--0------------3---3-2-3-3-3-3-3-3--|
A|--3/5-5-3/5-3/5--5-5-5-----------------------1-1-1-1-1-1--|
E|--1/3-3-1/3-1/3--3-3-3------------------------------------|


e|-------------------------------------------------------------------|
B|----------------------------------------------13-13-13-13----------|
G|-5/7-7-5/7-5/7--7-7-7---3/5-5-5---12-12-12-13-------------12-12----|
D|-5/7-7-5/7-5/7--7-7-7---3/5-5-5------------------------------------|
A|-3/5-5-3/5-3/5--5-5-5---1/3-3-3------------------------------------|
E|-------------------------------------------------------------------|


e|----------------------------------------------------------|
B|----------------------------------------------------------|
G|------------------------------2-2-2-------2-2-2-----------|
D|--3/5-5-3/5-3/5--5-5-5--------3-3-3-------3-3-3-----------|
A|--3/5-5-3/5-3/5--5-5-5--1-1-1-------1-1-1-------1-1-------|
E|--1/3-3-1/3-1/3--3-3-3------------------------------------|


e|-------------------------------------------------------------------|
B|-------------------------------------------------------------------|
G|-------------------------------------------------------------------|
D|-----------------------(silence)-----------------------------------|
A|-------------------------------------------------------------------|
D|-------------------------------------------------------------------|


e|-------------------------------------------------------------------|
B|-------------------------------------------------------------------|
G|-----------------------(silence)-----------------------------------|
D|-------------------------------------------------------------------|
A|-------------------------------------------------------------------|
D|-------------------------------------------------------------------|


 PM.....      PM....      PM..   PM.......      PM....      PM..
e|---------------------------------|---------------------------------|
B|---------------------------------|---------------------------------|
G|-------5-5-5-------5-5-5-----5---|-------2-2-2-------2-2-2-----2-2-|
D|-------7-7-7-------7-7-7-----7---|-------3-3-3-------3-3-3-----3-3-|
A|-5-5-5-------5-5-5-------5-5---0-|-1-1-1-------1-1-1-------1-1-----|
E|---------------------------------|---------------------------------|

 PM.....      PM....      PM..  PM........       PM...      PM..
e|---------------------------------|---------------------------------|
B|---------------------------------|---------------------------------|
G|-------2-2-2-------2-2-2-----2---|-------2-2-2-------2-2-2-----2---|
D|-------3-3-3-------3-3-3-----3---|-------3-3-3-------3-3-3-----3---|
A|-------------------------------0-|-1-1-1-------1-1-1-------1-1-----|
E|-3-3-3-------3-3-3-------3-3-----|---------------------------------|


 PM.....      PM....      PM..   PM.......      PM....      PM..
e|---------------------------------|---------------------------------|
B|---------------------------------|---------------------------------|
G|-------5-5-5-------5-5-5-----5---|-------2-2-2-------2-2-2-----2-2-|
D|-------7-7-7-------7-7-7-----7---|-------3-3-3-------3-3-3-----3-3-|
A|-5-5-5-------5-5-5-------5-5---0-|-1-1-1-------1-1-1-------1-1-----|
E|---------------------------------|---------------------------------|

 PM.....      PM....      PM..  PM........       PM...      PM..
e|---------------------------------|---------------------------------|
B|---------------------------------|---------------------------------|
G|-------2-2-2-------2-2-2-----2---|-------2-2-2-------2-2-2-2-2-2---|
D|-------3-3-3-------3-3-3-----3---|-------3-3-3-------3-3-3-3-3-3---|
A|-------------------------------0-|-1-1-1-------1-1-1---------------|
E|-3-3-3-------3-3-3-------3-3-----|---------------------------------|

e|-----------------------------------------------------------------------------|
B|-----------------------------------------------------------------------------|
G|-7--7-7-7/9-9-9/10-10-10/12-12-12/14-14---14/15\14/15\14/15\...(igual)-------|
D|-----------------------------------------------------------------------------|
A|-5--5-5-5/7-7-7/8--8--8-/10-10-10/12-12---12/13\12/13\12/12\...(igual)-------|
E|-----------------------------------------------------------------------------|


e|------------------------------------------------------------------------------|
B|------------------------------------------------------------------------------|
G|-7--7-7-7/9-9-9/10-10-10/12-12-12/14-14---14/15\14/15\14/15\...(igual)--------|
D|------------------------------------------------------------------------------|
A|-5--5-5-5/7-7-7/8--8--8-/10-10-10/12-12---12/13\12/13\12/12\...(igual)--------|
E|------------------------------------------------------------------------------|


e|------------------------------------------------------------------------------|
B|------------------------------------------------------------------------------|
G|-7--7-7-7/9-9-9/10-10-10/12-12-12/14-14---14/15\14/15\14/15\...(igual)--------|
D|------------------------------------------------------------------------------|
A|-5--5-5-5/7-7-7/8--8--8-/10-10-10/12-12---12/13\12/13\12/12\...(igual)--------|
E|------------------------------------------------------------------------------|

A mi me parece escuchar otra vez la parte anterior pero con esta encima, puede que la toque otra guitarra
d|-------------------------------------------------------------------------|
A|-------------------------------------------------------------------------|
F|-14--14-14-14\12-12-12\10-10-10\9-9-9\7-7---7/9\7/9\7/9\7/9\7/9\7/9\7/---|
C|-------------------------------------------------------------------------|
G|-10--12-12-12\10-10-10\8--8--8-\7-7-7\5-5---5/7\5/7\5/7\5/9\7/9\7/9\7/---|
C|-------------------------------------------------------------------------|


e|-------------------------------------------------------------------|
B|----------------------------------------------13-13-13-13----------|
G|-5/7-7-5/7-5/7--7-7-7---3/5-5-5---12-12-12-13-------------12-12----|
D|-5/7-7-5/7-5/7--7-7-7---3/5-5-5------------------------------------|
A|-3/5-5-3/5-3/5--5-5-5---1/3-3-3------------------------------------|
E|-------------------------------------------------------------------|


e|----------------------------------------------------------|
B|----------------------------------------------------------|
G|------------------------------2-2-2-------2-2-2-----2-----|
D|--3/5-5-3/5-3/5--5-5-5--------3-3-3-------3-3-3-----3-----|
A|--3/5-5-3/5-3/5--5-5-5--1-1-1-------1-1-1-------1-1-------|
E|--1/3-3-1/3-1/3--3-3-3------------------------------------|


e|-------------------------------------------------------------------|
B|----------------------------------------------13-13-13-13----------|
G|-5/7-7-5/7-5/7--7-7-7---3/5-5-5---12-12-12-13-------------12-12----|
D|-5/7-7-5/7-5/7--7-7-7---3/5-5-5------------------------------------|
A|-3/5-5-3/5-3/5--5-5-5---1/3-3-3------------------------------------|
E|-------------------------------------------------------------------|


e|----------------------------------------------------------|
B|----------------------------------------------------------|
G|------------------------------2-2-2-------2-2-2-2-2-2-----|
D|--3/5-5-3/5-3/5--5-5-5--------3-3-3-------3-3-3-3-3-3-----|
A|--3/5-5-3/5-3/5--5-5-5--1-1-1-------1-1-1-----------------|
E|--1/3-3-1/3-1/3--3-3-3------------------------------------|


 PM.....      PM....      PM..   PM.......      PM....      PM..
e|---------------------------------|---------------------------------|
B|---------------------------------|---------------------------------|
G|-------5-5-5-------5-5-5-----5---|-------2-2-2-------2-2-2-----2-2-|
D|-------7-7-7-------7-7-7-----7---|-------3-3-3-------3-3-3-----3-3-|
A|-5-5-5-------5-5-5-------5-5---0-|-1-1-1-------1-1-1-------1-1-----|
E|---------------------------------|---------------------------------|

 PM.....      PM....      PM..  PM........       PM...      PM..
e|---------------------------------|---------------------------------|
B|---------------------------------|---------------------------------|
G|-------2-2-2-------2-2-2-----2---|-------2-2-2-------2-2-2-----2---|
D|-------3-3-3-------3-3-3-----3---|-------3-3-3-------3-3-3-----3---|
A|-------------------------------0-|-1-1-1-------1-1-1-------1-1-----|
E|-3-3-3-------3-3-3-------3-3-----|---------------------------------|


 PM.....      PM....      PM..   PM.......      PM....      PM..
e|---------------------------------|---------------------------------|
B|---------------------------------|---------------------------------|
G|-------5-5-5-------5-5-5-----5---|-------2-2-2-------2-2-2-----2-2-|
D|-------7-7-7-------7-7-7-----7---|-------3-3-3-------3-3-3-----3-3-|
A|-5-5-5-------5-5-5-------5-5---0-|-1-1-1-------1-1-1-------1-1-----|
E|---------------------------------|---------------------------------|

 PM.....      PM....      PM..  PM........       PM...      PM..
e|---------------------------------|---------------------------------|
B|---------------------------------|---------------------------------|
G|-------2-2-2-------2-2-2-----2---|-------2-2-2-------2-2-2-----2---|
D|-------3-3-3-------3-3-3-----3---|-------3-3-3-------3-3-3-----3---|
A|-------------------------------0-|-1-1-1-------1-1-1-------1-1-----|
E|-3-3-3-------3-3-3-------3-3-----|---------------------------------|


e|----------------|
B|----------------|
G|---2-----5------|
D|---3-----7------|
A|---1/5----------|
E|----------------|
Tap to rate this tab
# A B C D E F G H I J K L M N O P Q R S T U V W X Y Z