Guitaretab - guitar tabs
Song name
# A B C D E F G H I J K L M N O P Q R S T U V W X Y Z

P O D - Boom tab

Title: Boom
Band: P.O.D.
Album: Satellite
Tuning: Dropped D (DADGBe)
Tabbed by: simpleppl@hotmail.com

---------------------------------------------
| p - pull off  h - hammer on  . - stacatto |
| ... - palm mute  * - harmonic             |
---------------------------------------------

 Intro
d|--------------------------------------------------------------------------
A|--------------------------------------------------------------------------
F|--------------------------------------------------------------------------
C|--------------------------------------------------------------------------
G|--------------------------------------------------------------------------
C|-2-2-2-2-2-p-0-0-0-0-h-2-2-2-2-p-0-0-0-5-5-5-5-5-5-5-5-5-h-7-7-7-7-7-7-7--


 Pre-chorus
d|----------------------------------------------------------------------------
A|----------------------------------------------------------------------------
F|----------------------------------------------------------------------------
C|-0-h-2-2-2-2-p-0-0-0-0-h-2-2-2-2-p-0-0-0-5-5-5-5-5-5-5-5-5-h-7-7-7-7-7-7-7--
G|-0-h-2-2-2-2-p-0-0-0-0-h-2-2-2-2-p-0-0-0-5-5-5-5-5-5-5-5-5-h-7-7-7-7-7-7-7--
C|-0-h-2-2-2-2-p-0-0-0-0-h-2-2-2-2-p-0-0-0-5-5-5-5-5-5-5-5-5-h-7-7-7-7-7-7-7--
                                                                             2x

 Verse
d|------------------------------------------------------------------
A|------------------------------------------------------------------
F|------------------------------------------------------------------
C|------------------------------------------------------------------
G|------------------------------------------------------------------
C|-0-2-2-2-2-0-0-0-0-2-2-2-2-0-0-0-5-5-5-5-5-5-5-5-7-7-7-7-7-7-7-7--
   ...............................................................


 Chorus
d|-------------------------------------
A|-------------------------------------
F|---------------2-2-2-2----2-2-2-2----
C|-2-2-0--2-2-0--2-2-2-2-0--2-2-2-2-0--
G|-2-2----2-2----0-0-0-0-0--0-0-0-0-0--
C|-2-2----2-2------------0----------0--


 Bridge (clean)                                                                  Dist
d|------------------------------------------------------------------------------------------
A|------------------------------------------------------------------------------------------
F|---------------------12*-------------------------------------12*--------------------------
C|-(2)------2------2----------2------2--2-h-4-p-2-----2------2---------2------2--2-h-4-p-2--
G|-(2)----2------2----------2------2----------------2------2---------2------2---------------
C|-(2)--2------0----------2------0----------------2------0---------2------0-----------------


d|--------------------------------------------------------------------------------
A|--------------------------------------------------------------------------------
F|--------------------------------------------------------------------------------
C|-2----0---2-h-4-p-2--2----0---2-h-4-p-2--2----0--2-h-4-p-2--2----0---2-h-4-p-2--
G|-2----0--------------2----0--------------2----0-------------2----0--------------
C|-2----0--------------2----0--------------2----0-------------2----0--------------


 Chorus 2
d|-------------------------------------
A|-------------------------------------
F|-.-.----.-.----2-2-2-2----2-2-2-2----
C|-2-2----2-2----2-2-2-2-0--2-2-2-2-0--
G|-2-2----2-2----0-0-0-0-0--0-0-0-0-0--
C|-2-2----2-2------------0----------0--
                                      2x

Intro            / Pre-Chorus
Pre-chorus      /  Chorus - 4x
Verse - 4x     /   Bridge
Pre-chorus    /    Chorus 2
Chorus - 4x  /     Chorus - 2x
Verse - 4x  /
[ Tab from: http://www.guitaretab.com/p/p-o-d/25482.html ]
Related for Boom tab
×
Boom