Guitaretab - guitar tabs
Song name
# A B C D E F G H I J K L M N O P Q R S T U V W X Y Z

P O D - Thinkig About Forever tab

Trnscribbed by : ~-$iLVeR-~
email me for corrections and more details cos it's not finished [maybe]
Silvertone007@hotmail.com


Intro:
*****

Guitar 1:
e|-12~-12~-13~---12~-12~-13~------13~-12~-12~---13~-12~-12~---|
B|------------------------------------------------------------| (*2)
G|------------------------------------------------------------|
D|------------------------------------------------------------|
A|------------------------------------------------------------|
E|------------------------------------------------------------|
Guitar 2:
   Am		Am		  F|------< 2nd time till here
e|---------------------------------------------------------------------|
B|---------------------------------------------6s8-8s10-10s12-12s13-13-| 
G|---------------------------------------------------------------------|
D|---------------------------------------------------------------------|
A|---------------------------------------------------------------------|
E|---------------------------------------------------------------------|

Verse:
e|--------------------------------------------|
B|-------0--0---------------------------0~-1~-|
G|-----2---2---4h2h0-------------2--0-2-------|(1rst Bar)
D|---2---------------3h2h0-----3--------------|
A|-0--------------------------3---------------|
E|--------------------------1-----------------|

e|--------------------------------------------|
B|-------0--0---------------------------0~-1~-|
G|-----2---2---4h2h0-------------2------------|(2nd Bar)
D|---2---------------3h2h0-----3--------------|
A|-0--------------------------3---------------|
E|--------------------------1-----------------|


Chorus
******
Guitar 1:
e|-12~-12~-13~---12~-12~-13~------13~-12~-12~---13~-12~-12~---|
B|------------------------------------------------------------| 
G|------------------------------------------------------------|
D|------------------------------------------------------------|
A|------------------------------------------------------------|
E|------------------------------------------------------------|
Guitar 2:
   Am		Am		  F
e|---------------------------------------------------------------------|
B|---------------------------------------------6s8-8s10-10s12-12s13-13-| 
G|---------------------------------------------------------------------|
D|---------------------------------------------------------------------|
A|---------------------------------------------------------------------|
E|---------------------------------------------------------------------|

Guitar 1:
e|-12~-12~-13~---12~-12~-13~------13~-12~-12~---13~-12~-12~---|
B|------------------------------------------------------------| 
G|------------------------------------------------------------|
D|------------------------------------------------------------|
A|------------------------------------------------------------|
E|------------------------------------------------------------|

Guitar 2:
   Am		Am		  F
e|---------------------------------------------------------------------|
B|---------------------------------------------6s8-8s6-6s8-8s6-6s8-----| 
G|---------------------------------------------------------------------|
D|---------------------------------------------------------------------|
A|---------------------------------------------------------------------|
E|---------------------------------------------------------------------|

Solo
****
e|-----------------------------1-1-1s3-3~-1h3p1p0 1-|
B|--------------------5-3-1-3-5---------------------|
G|-------------0-2-4--------------------------------|
D|--2-3-0h2h3---------------------------------------|
A|--------------------------------------------------|
E|--------------------------------------------------|



e|------------------------------------------------|
B|-5h6p5p3-5--3p1-3-1-0-1-0-1s3-1h3p1p0-3-1h3p1p0-|
G|------------------------------------------------|
D|------------------------------------------------|
A|------------------------------------------------|
E|------------------------------------------------|


e|---------------------------------------------------------------------|
B|-0h1-1s3-3s5-5s6-5~-5-6---------------5-3-1--------------------------|
G|------------------------------0-2-4-5--------4-2-4-4b5r4-4-2-4-4b5r4-|
D|------------------------0-2-3----------------------------------------|
A|---------------------------------------------------------------------|
E|---------------------------------------------------------------------|

Outro:
*****
Same as chorus except fot the last line ends with this:

Guitar 2:
   Am		Am		  F
e|------------------------------------------------------------------------------------|
B|---------------------------------------------6s8-8s6-6s8-8s6-6s8-6-----5h6p5h6-etc--| 
G|------------------------------------------------------------------5-----------------|
D|------------------------------------------------------------------------------------|
A|------------------------------------------------------------------------------------|
E|------------------------------------------------------------------------------------|
[ Tab from: http://www.guitaretab.com/p/p-o-d/25552.html ]
Related for Thinkig About Forever tab