Guitaretab - guitar tabs
Song name
# A B C D E F G H I J K L M N O P Q R S T U V W X Y Z
Home / P / P O D / Wildfire tab

P O D - Wildfire tab

x = Dead note
~ = Let ring
* = Harmonic
^ = Volume Swell

Fig. 1
D|------------------------------------|
A|------------------------------------|
F|------------------------------------|
C|-9-9-9-5-5-5-0~--8-8-8-5-1~---------|
G|-9-9-9-5-5-5-0~--8-8-8-5-1~-x-6-3-x-|
C|-9-9-9-5-5-5-0~--8-8-8-5-1~-x-----x-|

D|------------------------------------|
A|------------------------------------|
F|------------------------------3-----|
C|-9-9-9-5-5-5-0~--8-8-8-5-1~---1-----|
G|-9-9-9-5-5-5-0~--8-8-8-5-1~-x-1-----|
C|-9-9-9-5-5-5-0~--8-8-8-5-1~-x-1-----|

Fig. 2
D|------------------------------------|
A|------------------------------------|
F|------------------------------------|
C|------------------------------------|
G|-9-9-9-9-9-9-------8-8-8-8-8-8------|
C|-9-9-9-9-9-912*^--8-8-8-8-8-8-13^--|
   . . . . . .       . . . . . .

Fig.1
D|--------------------------------------------------|
A|--------------------------------------------------|
F|-8-8-8--8~-----------/11-11-11--11~-11-11-11--11~-|
C|-9-9-9--9~-4-4-4--4~-/12-12-12--12~-13-13-13--13~-|
G|-9-9-9--9~-5-5-5--5~-/12-12-12--12~-12-12-12--12~-|
C|-----------5-5-5--5~------------------------------|

D|----------------------------------------------------------------------------------
A|----------------------------------------------------------------------------------
F|-8-8-8-8-8-8-8-8-----------------/11-11-11-11-11-11-11-11-11-11-11-11-11-11-11-11-
C|-9-9-9-9-9-9-9-9-4-4-4-4-4-4-4-4-/12-12-12-12-12-12-12-12/13-13-13-13-13-13-13-13-
G|-9-9-9-9-9-9-9-9-5-5-5-5-5-5-5-5-/12-12-12-12-12-12-12-12-12-12-12-12-12-12-12-12-
C|-----------------5-5-5-5-5-5-5-5--------------------------------------------------
[ Tab from: http://www.guitaretab.com/p/p-o-d/26199.html ]
Related for Wildfire tab