Song name
# A B C D E F G H I J K L M N O P Q R S T U V W X Y Z

P Ramlee - Dendang Perantau tab

e|-----------6~6s6-------------6s--9----8---6--8---6--------------------|
B|---6--7----------------7s-9s-------------------------10~--------------|
G|----------------------------------------------------------------------|
D|----------------------------------------------------------------------|
A|----------------------------------------------------------------------|
E|----------------------------------------------------------------------|



e|----------8~-6~-4s-6~~--4----------------------------------------|
B|--8s9s10-------------------7~~--6--8s9---6s8---5~~---------------|
G|-----------------------------------------------------------------|
D|-----------------------------------------------------------------|
A|-----------------------------------------------------------------|
E|-----------------------------------------------------------------|


e|--------------------------------------------------------------|
B|----------------------5--6s--5~--7s-5~~-----------------------|
G|------------5s-6s--8------------------------------------------|
D|----5s--7-----------------------------------------------------|
A|--------------------------------------------------------------|
E|--------------------------------------------------------------|





e|---------------------------------------------------------------|
B|------5--8--7~--5--3~--5~-3~-----------------------------------|
G|---7-8---------------------------------------------------------|
D|---------------------------------------------------------------|
A|---------------------------------------------------------------|
E|---------------------------------------------------------------|





e|---------------------------------------------------------------|
B|---------3----7~--6--5--6---2~~--------------------------------|
G|---5-6---------------------------------------------------------|
D|---------------------------------------------------------------|
A|---------------------------------------------------------------|
E|---------------------------------------------------------------|




e|----------------------------------------------------------------------------|
B|--5--3--6~~-4~---6S7S-6----6------------------------------------------------|
G|-------------------------8----6--8---5S---5S--------------------------------|
D|---------------------------------------6-------8~~--------------------------|
A|----------------------------------------------------------------------------|
E|----------------------------------------------------------------------------|
Tap to rate this tab
# A B C D E F G H I J K L M N O P Q R S T U V W X Y Z