Song name
# A B C D E F G H I J K L M N O P Q R S T U V W X Y Z

Pablo Alboran - Te He Echado De Menos tab

Bueno, esta es mi primera tab y espero que les guste, como vi que
en ningun lado estaba el solo de esta cancion decidi sacarlo lo
mejor posible y postearlo, saludos!

e |------------------------------9/10-8-7-7--------------------------- -------|
B |-8-8-10p8p7-8--7------------8------------10~--7-8-10-10-12-8~--7-7-5-5-----|
G |-----------------9-9/11-7~--------------------7-9-11-11-12-9~--7-7-5-5-----|
D |----------------------------------------------------------------------- ---|
A |----------------------------------------------------------------------- ---|
E |----------------------------------------------------------------- ---------|

e|-------------------------------------------------------------------|
B|-----------------------------------------------------7-8-10-7------|
G|-7-7~--5-4-4-5p4-2--------7----7----7---7--7h9-7~--9---------7~----|
D|-------------------0-2/4-5--4/5--4/5--4/5--------------------------|
A|-------------------------------------------------------------------|
E|-------------------------------------------------------------------|

e|----------7-10/12-12~----14----15~--7/5-5------------------------------------|
B|-----7-10-------------/12---/12-----------8-8~--8-10-13-10h12-10-8-8/10~-----|
G|-7-9-------------------------------------------------------------------------|
D|-----------------------------------------------------------------------------|
A|-----------------------------------------------------------------------------|
E|-----------------------------------------------------------------------------|
Tap to rate this tab
# A B C D E F G H I J K L M N O P Q R S T U V W X Y Z