Song name
# A B C D E F G H I J K L M N O P Q R S T U V W X Y Z

Pacific Air - Intermission tab

"Intermission" - Pacific Air (Formally KOKO)
LONG LIVE KOKO - 2012
Tabbed by Jameson G. (jpghalio@yahoo.com for comments/questions)

Intro: (Pretty much the whole song too)

*Chords are just Bm, A Major, and Em if you need a quick run down

Guitar 1: 


|-7-7-7-7-9-7------------------------|
|-7-7-7-7-7-7--7-7-7-5-7-------------|
|-7-7-7-7-7-7--6-6-6-6-6-------------|
|--------------7-7-7-7-7-------------|
|------------------------------------|
|------------------------------------|

|-7-7-9--------|
|-6-6-6-//12---|
|-9-9-9--------|
|--------------|
|--------------|
|--------------| x2

*// = Slide up
*Repeat through whole song.

Guitar 2 (Ahh Ah Ahhh Ah Part)
"Listen, to me.."

|----5--5-----7-----5--7----------------------|
|--7------7------5----7--5--7-5---------------|
|--------------------------------7-9--9-7-----|
|-----------------------------------------9--7|
|---------------------------------------------|
|---------------------------------------------|



*Band Comes in with drums and bass

Bass Line for Guitar:
|---------------------------------------------|
|---------------------------------------------|
|---------------------------------------------|
|---------------------------------------------|
|----9-9--7-7--------7-7--5-5-----------------|
|-7-7----------7---5-----------5--------------| 

|---------------------------------------------|
|---------------------------------------------|
|---------------------------------------------|
|-----7--9-9---------7--9-9-------------------|
|-7-7---------7----7--------------------------|
|---------------------------------------------|
*Repeat throughout


When the song builds feel free to use bar chords for bigger sound:

|-7---5---7---7-------------------------------|
|-7---5---7---7-------------------------------|
|-7---6---9---9-------------------------------|
|-9---7---9---9-------------------------------|
|-9---7---7---7-------------------------------|
|-7---5---------------------------------------|

*Play softly then end on
|----|
|-12-|
|----|
|----|
|----|
|----|

Intro: Just guitar 1
Verse 1: Guitar 1 and Guitar 2
Chorus: Add bass and drums
Verse 2: Full Band
Chorus 2: Full Band, and bigger sound
End: Guitar 1 and 2 and bass, end on the B note

LONG LIVE KOKO!
Tap to rate this tab
 
# A B C D E F G H I J K L M N O P Q R S T U V W X Y Z