Song name
# A B C D E F G H I J K L M N O P Q R S T U V W X Y Z

Pacific Air - Move tab

A great jam.

Artist: Pacific Air
Song: Move      
Album: Stop Talking
Tuning: Standard

Intro

e |--x---2---4---4---2-------|
B |--7---2---5---4---2-------|
G |--8---3---6---4---3-------|
D |--9---4---6---6---4-------|
A |--9---4---4---6---4-------|  
E |--x---2---x---4---2-------|

Verse 1 

e |--x---2---4---4---2-------|
B |--7---2---5---4---2-------|
G |--8---3---6---4---3-------|
D |--9---4---6---6---4-------|
A |--9---4---4---6---4-------|  
E |--x---2---x---4---2-------|

I have listened so well 
When they told me to be what I think I should be
Lost inside a vision
Wore a dark embrace of my mental lace 

Pre Chorus

e |--x---2---4---4---2-------|
B |--7---2---5---4---2-------|
G |--8---3---6---4---3-------|
D |--9---4---6---6---4-------|
A |--9---4---4---6---4-------|  
E |--x---2---x---4---2-------|

Iím never gonna let it show
Never gonna let it show that Iím the first to leave 

Chorus

e |--x---2---4---4---2-------|
B |--7---2---5---4---2-------|
G |--8---3---6---4---3-------|
D |--9---4---6---6---4-------|
A |--9---4---4---6---4-------|  
E |--x---2---x---4---2-------|

Oh, you donít got me moving 
Oh, you donít got me movingon
You donít got me moving so Iím moving on from you

Lead Guitar

e |-----------------------7--9--7----------------------|
B |------------7--9--7--9---------9---9----------------|
G |-4--8--6--8----------------------8-----8---6---4----|
D |----------------------------------------------------|
A |----------------------------------------------------|        
E |----------------------------------------------------|


Verse 2

Why is the noise still growing
Youíre speaking words for the sake of words


Pre- chorus

Chorus

Bridge

e |--x---2---4---4---2-------|
B |--7---2---5---4---2-------|
G |--8---3---6---4---3-------|
D |--9---4---6---6---4-------|
A |--9---4---4---6---4-------|  
E |--x---2---x---4---2-------|

My bodyís like a vision 
So fraught with inhibitions
It all seems like a dream to me

Chorus

e |--x---2---4---4---2-------|
B |--7---2---5---4---2-------|
G |--8---3---6---4---3-------|
D |--9---4---6---6---4-------|
A |--9---4---4---6---4-------|  
E |--x---2---x---4---2-------|

Oh, you donít got me moving on
Oh, you donít got me moving
You donít got me moving so Iím moving on from you

Lead Guitar

e |-----------------------7--9--7----------------------|
B |------------7--9--7--9---------9---9----------------|
G |-4--8--6--8----------------------8-----8---6---4----|
D |----------------------------------------------------|
A |----------------------------------------------------|        
E |----------------------------------------------------|


Tap to rate this tab
# A B C D E F G H I J K L M N O P Q R S T U V W X Y Z