Song name
# A B C D E F G H I J K L M N O P Q R S T U V W X Y Z

Pacific Dub - Till The End tab

Just to make sure:

h- hammer on
p- pull off
/- slide
TP- Tremolo Picking
~- Vibrato


    Em                        C                                      G
e|-------7h10--7------------------------------------------------------------|
B|----------------10-8-7h8p7------------------7-8-10-10h12-10-8-10--8~------|
G|----------------------------9~-------TP999--------------------------------|
D|--------------------------------------------------------------------------|
A|--------------------------------------------------------------------------|
E|--------------------------------------------------------------------------|
                        B7                           
e|--------------------------------5/7--5-----5----------------------------|
B|-8h10p8--7h8p7--5h7p5-------------------8------8~-----------------------|
G|-----------------------7~-----------------------------------------------|x2
D|------------------------------------------------------------------------|
A|------------------------------------------------------------------------|
E|--------------------------- --------------------------------------------|
  
 Em               C                       G
e|--7-8-10-8-7-8-7----TP777------7-7----------------------------------------|
B|-----------------10------10-10---TP1010--8--TP777-TP888--TP77-8-TP1010----|
G|--------------------------------------------------------------------------|
D|--------------------------------------------------------------------------|
A|--------------------------------------------------------------------------|
E|--------------------------------------------------------------------------|
  B7
e|-----TP777------------------------------------------------------------|
B|--8----------10--8~---------------------------------------------------|
G|----------------------------------------------------------------------|
D|----------------------------------------------------------------------|x2
A|----------------------------------------------------------------------|
E|----------------------------------------------------------------------|


The song goes like Em  C  G  B7 entirely, except in the chorus, where it goes like   C  D  Em  Em

Enjoy.
Tap to rate this tab
# A B C D E F G H I J K L M N O P Q R S T U V W X Y Z