Song name
# A B C D E F G H I J K L M N O P Q R S T U V W X Y Z

Pacifier - Bullitproof tab

------------------------------------------------------------------------------
			     PACIFIER BULLITPROOF
------------------------------------------------------------------------------

Tabbed by:Tcurtis
Email:SuM41_RoX182@hotmail.com

Tuning:C-G-C-F-A-D

my first tab so dont give me hell

e|---------------------------------------------------------------------------|
B|---------------------------------------------------------------------------|
G|-----7---------------------------------------------------------------------|
D|--0--7---5-5-3-5-------3X--------------------------------------------------|
A|--0--5---5-5-3-5-----------------------------------------------------------|
E|--0------5-5-3-5-----------------------------------------------------------|

e|---------------------------------------------------------------------------|
B|---------------------------------------------------------------------------|
G|---------------------------------------------------------------------------|
D|--8-5-5-5-3-5-0------------------------------------------------------------|
A|--8-5-5-5-3-5-0------------------------------------------------------------|
E|--8-5-5-5-3-5-0------------------------------------------------------------|
Tap to rate this tab
# A B C D E F G H I J K L M N O P Q R S T U V W X Y Z