Song name
# A B C D E F G H I J K L M N O P Q R S T U V W X Y Z

Paco De Lucia John Mclaughlin - Lotus Feet tab

-------------------------------------------------------------------------------
                             LOTUS FEET - Paco de Lucia/John Mclaughlin
-------------------------------------------------------------------------------
Tabbed by:Percise
E-mail:kingfuggingbang@gmail.com

Tuning:standard

e|-------------------3-------------------2------------------0--------------------|
B|----------------0-------------------0------------------0-------------0---------|
G|-------------0-------------------0------------------0-------------------0------|
D|----------2-------------------2------------------2-------------------2-----0---|
A|-------2-------------------2------------------2-------------------2------------|
E|----0-------------------0------------------0-------------------0---------------|

e|-------------------3------------------2------------------0---------------------|
B|-------------0------------------0------------------0--------------0------------|
G|----------0-----0------------0-----0------------0-----0--------------0---------|
D|-------2------------------2------------------2-----------------2--------0------|
A|----3------------------3------------------3-----------------3------------------|
E|-------------------------------------------------------------------------------|

e|-------------------3-------------------2------------------0--------------------|
B|----------------0-------------------0------------------0-------------0---------|
G|-------------0-------------------0------------------0-------------------0------|
D|----------2-------------------2------------------2-------------------2-----0---|
A|-------2-------------------2------------------2-------------------2------------|
E|----0-------------------0------------------0-------------------0---------------|

e|-------------------3------------------2------------------0---------------------|
B|-------------0------------------0------------------0--------------0------------|
G|----------0-----0------------0-----0------------0-----0--------------0---------|
D|-------2------------------2------------------2-----------------2--------0------|
A|----3------------------3------------------3-----------------3------------------|
E|-------------------------------------------------------------------------------|

Repeat this sequence until John finishes solo

************************************

| /   slide up
| \   slide down
| h   hammer-on
| p   pull-off
| ~   vibrato
| +   harmonic
| x   Mute note
| b   Bend
| pb  Pre-bend
| br  Bend release
| pbr Pre-bend release
| brb Bend release bend

************************************
Tap to rate this tab
# A B C D E F G H I J K L M N O P Q R S T U V W X Y Z