Song name
# A B C D E F G H I J K L M N O P Q R S T U V W X Y Z

Paco Rabanne - Black Xs Advert tab

I could not find the artist/song title anywhere on the net and thought it was a 
pretty cool song on the advert. Thus have constructed my own tab :-) Enjoy.

Heres a link to the song 
http://uk.youtube.com/watch?v=szmnlr2Xg-s 

PM: Palm Muted
d:  Downstroke
u:  Upstroke

Intro 

E|-------------------------------------------|
B|-------------------------------------------|
G|-------------------------------------------|
D|---------------5-----5----5--6-5---8-------|
A|-6-99-8-6----3----/6---/8------------5-----|
E|-6-99-8-6----------------------------------|

Chords (played after intro)

       { PM }            { PM }
   d   dududu d   du d u dududu
E|-------------------------------------------|
B|-------------------------------------------|
G|-5---555555-5---55-6-5-555555--66-5-3------|
D|-5---555555-5---55-6-5-555555--66-5-3------|
A|-3---333333-3---33-4-3-333333- 44-3-1------|
E|-------------------------------------------|

Outro

E|-------------------------------------------|
B|-------------------------------------------|
G|-------------------------------------------|
D|------5-----5----5--6-5----5---------------|
A|----3----/6---/8---------8-----------------|
E|-------------------------------------------|
Tap to rate this tab
 
# A B C D E F G H I J K L M N O P Q R S T U V W X Y Z