Song name
# A B C D E F G H I J K L M N O P Q R S T U V W X Y Z

Paddock Park - Ill Swing My Fists tab

Band - Paddock Park
Song - I'll Swing My Fists
Tabbed By : SumFX (Tyler Freear)

Easy Song In Drop C
Interesting To Note That PP Play In Drop C AND D On Thier Album!

Main Rhythm           Lead Guitar
|----------------|   |-------------|--------------|
|----------------|   |-------------|--------------|
|----------------|   |-2-0---0-2-0-|-2-0---3-2-0--|
|-0--000-00--00--|   |-----3-------|-----3--------|
|-0--000-00--00--|   |-------------|--------------|
|-0--000-00--00--|   |-------------|--------------|
     ... ..  ..       Lead Harmony
                     |-------------|-------------|
                     |-------------|-------------|
                     |-------------|-------------|
                     |-3-2-0-2-3-2-|-3-2-0-5-3-2-|
                     |-------------|-------------|
                     |-------------|-------------|

         Octave Section
|-------|----x3-----------|-----------|
|-------|-----------------|-----------|
|-------|-7777-101010-999-|-7777-9999-|
|-0-----|-xxxx-x-x-x--xxx-|-xxxx-xxxx-|
|-0-----|-5555-8-8-8--777-|-5555-7777-|
|-0-----|-----------------|-----------|

        Rhythm Behind Octaves
        |-----x3----------|--------------|
        |-----------------|--------------|
        |-----------------|--------------|
        |-0000-333--222---|-0000-333-666-|
        |-0000-111--000---|-0000-111-444-|
        |-0000------------|-0000---------|


Outro
(Like Most PP Songs, Open Palm Mutes)
(Strumming Is Easy)
|--------------------|
|--------------------|
|--------------------|
|-0--0--0--000-------|
|-0--0--0--000--etc--|
|-0--0--0--000-------|
           ...

I Hope This Doesn't Look Too Messy!

Rate & Comments Please!

Tap to rate this tab
 
# A B C D E F G H I J K L M N O P Q R S T U V W X Y Z