Song name
# A B C D E F G H I J K L M N O P Q R S T U V W X Y Z

Paddock Park - Ill Swing My Fists tab

This is my first tab (despite the fact that I've been playing for 3+ years) so please be 
> ^ <.

Artist: Paddock Park
Album: A Hiding Place For Fake Friends
Song: I'll Swing My Fists

* - Palm Mute
~ - Let Ring/Vibrate
/ - Slide Up
\ - Slide Down

D:-----------------------------------------------------------------|
A:-----------------------------------------------------------------|
F:-----------------------------------------------------------------|
C:--0---------------------------------0-------------------[Bass]---|
G:--0-0-0-0-000~000----0-0-0-000~000~-0-0-0-0-000~000-----[Slide]--|
C:--0-0-0-0-000~000----0-0-0-000~000~-0-0-0-0-000~000--------------|
      * * * *** ***    * * * *** ***    * * * *** ***

D:-----------------------------------------------------6-5---6~5~~~|
A:---------------------------------------------------------6-------|
F:-----------------------------------------------------------------|
C:--0---------------------------------0----------------------------|
G:--0-0-0-0-000~000----0-0-0-000~000~-0-0-0-0-000~000--------------|
C:--0-0-0-0-000~000----0-0-0-000~000~-0-0-0-0-000~000--------------|
      * * * *** ***    * * * *** ***    * * * *** ***

D:-----------------------------------------------------------------|
A:-----------------------------------------------------------------|
F:-----------------------------------------------------------------|
C:--0---------------------------------0----------------------------|
G:--0-0-0-0-000~000~---0-0-0-000~000~-0-0-0-0-000~000~~~~~---------|
C:--0-0-0-0-000~000~---0-0-0-000~000~-0-0-0-0-000~000~~~~~---------|
    * * * * *** ***    * * * *** ***    * * * *** ***

D:-----------------------------------------------------------------|
A:-----------------------------------------------------------------|
F:-----------------------------------------------------------------|
C:--0---------------------------------0----------------------------|
G:--0-0-0-0-000~000~---0-0-0-000~000~-0-0-0-0-000~000~~~~~---------|
C:--0-0-0-0-000~000~---0-0-0-000~000~-0-0-0-0-000~000~~~~~---------|
      * * * *** ***    * * * *** ***    * * * *** ***

D:-----------------------------------------------------------------|
A:-----------------------------------------------------------------|
F:-----------------------------------------------------------------|
C:--0---------------------------------0----------------------------|
G:--0-0-0-0-000~000~~--0-0-0-000~000~-0-0-0-0-000~000--8-7--5/7-7/8|
C:--0-0-0-0-000~000~~--0-0-0-000~000~-0-0-0-0-000~000--------------|
      * * * *** ***    * * * *** ***    * * * *** ***

D:-----------------------------------------------------------------|
A:-----------------------------------------------------------------|
F:-----------------------------------------------------------------|
C:--0---------------------------------0----------------------------|
G:--0-0-0-0-000~000~~--0-0-0-000~000~-0-0-0-0-000~000~~~~~---------|
C:--0-0-0-0-000~000~~--0-0-0-000~000~-0-0-0-0-000~000~~~~~---------|
      * * * *** ***    * * * *** ***    * * * *** ***

D:-----------------------------------------------------------------|
A:--------(16x)---------------(8x)----------(4x)------(4x)---------|
F:--7777777777777777--7/10101010101010---10/121212--12\101010------|
C:--xxxxxxxxxxxxxxxx--x/x-x-x-x-x-x-x----x//x-x-x---x\\x-x-x-------|
G:--5555555555555555--5/8-8-8-8-8-8-8----8//101010--10\8-8-8-------|
C:-----------------------------------------------------------------|


D:-----------------------------------------------------------------|
A:--------(16x)----------------(16x)-------------------------------|
F:--7777777777777777-----------------------------------------------|
C:--xxxxxxxxxxxxxxxx-----8888888888888888--------------------------|
G:--5555555555555555-----8888888888888888--------------------------|
C:-----------------------8888888888888888--------------------------|


D:-----------------------------------------------------------------|
A:--------(16x)------------(8x)-----(4x)-(4x)----------------------|
F:--7777777777777777-----------------------------------------------|
C:--xxxxxxxxxxxxxxxx-----88888888-\-5555-5/777---------------------|
G:--5555555555555555-----88888888-\-5555-5/777---------------------|
C:-----------------------88888888-\-5555-5/777---------------------|


D:-----------------------------------------------------------------|
A:-----------------------------------------------------------------|
F:-----------------------------------------------------------------|
C:--0------------------0-------------------------------------------|
G:--0---0-0--00000000--0--0-0--00000000--0--0-0--00000000--0---0-0-|
C:--0---0-0--00000000--0--0-0--00000000--0--0-0--00000000--0---0-0-|
        * *  ********     * *  ********  *  * *  ********  *   * *

D:-----------------------------------------------------------------|
A:--------------------HEAVY-FUCKIN'-PALM-MUTE!!!!------------------|
F:-----------------------------------------------------------------|
C:-----------------------------------------------------------------|
G:--0---0-0--00000000--0--0-0--00000000--0--0-0--00000000--0---0-0-|
C:--0---0-0--00000000--0--0-0--00000000--0--0-0--00000000--0---0-0-|
    *   * *  ********     * *  ********  *  * *  ********  *   * *

D:-----------------------------------------------------------------|
A:--------------------HEAVY-FUCKIN'-PALM-MUTE!!!!------------------|
F:--------------(and-play-a-little-slower-than-before)-------------|
C:-----------------------------------------------------------------|
G:--0---0-0--00000000--0--0-0--00000000--0--0-0--00000000--0---0-0-|
C:--0---0-0--00000000--0--0-0--00000000--0--0-0--00000000--0---0-0-|
    *   * *  ********     * *  ********  *  * *  ********  *   * *

D:-----------------------------------------------------------------|
A:--------(16x)---------------(8x)----------(4x)------(4x)---------|
F:--7777777777777777--7/10101010101010---10/121212--12\101010------|
C:--xxxxxxxxxxxxxxxx--x/x-x-x-x-x-x-x----x//x-x-x---x\\x-x-x-------|
G:--5555555555555555--5/8-8-8-8-8-8-8----8//101010--10\8-8-8-------|
C:-----------------------------------------------------------------|


D:-----------------------------------------------------------------|
A:--------(16x)----------------(16x)-------------------------------|
F:--7777777777777777-----------------------------------------------|
C:--xxxxxxxxxxxxxxxx-----8888888888888888--------------------------|
G:--5555555555555555-----8888888888888888--------------------------|
C:-----------------------8888888888888888--------------------------|


D:-----------------------------------------------------------------|
A:--------(16x)------------(8x)-----(4x)-(4x)----------------------|
F:--7777777777777777-----------------------------------------------|
C:--xxxxxxxxxxxxxxxx-----88888888-\-5555-5/777---------------------|
G:--5555555555555555-----88888888-\-5555-5/777---------------------|
C:-----------------------88888888-\-5555-5/777---------------------|


D:-----------------------------------------------------------------|
A:-----------------------------------------------------------------|
F:-----------------------------------------------------------------|
C:--0------------------0-------------------------------------------|
G:--0---0-0--00000000--0--0-0--00000000--0--0-0--00000000--0---0-0-|
C:--0---0-0--00000000--0--0-0--00000000--0--0-0--00000000--0---0-0-|
        * *  ********     * *  ********  *  * *  ********  *   * *

There you go! A simple song really, so a good one for me to start with ~^ - ^~
Please rate and/or comment!
And please feel free to message me about any mistakes I probably made.
Tap to rate this tab
 
# A B C D E F G H I J K L M N O P Q R S T U V W X Y Z