Song name
# A B C D E F G H I J K L M N O P Q R S T U V W X Y Z

Paddy And The Rats - Clock Strikes Midnight tab

Paddy and the rats - Clock strikes midnight (intro/theme) 
I write this by hear! Have a good time !:D

A magyarokat kérném tolják fel a pontozást ha tetszik és
irjanak bátran ha valami probléma van!


By:Prens prens282@gmail.com

e:-------0-----------------------------------|
H:---------3-1----1---------3-3-3--1--0------|
G:--0--2--------2----2-0-0---------------2-2-|
D:-------------------------------------------|
A:-------------------------------------------|
E:-------------------------------------------|


e:-------0------------------4-4-4--4-1--0-0--|
H:---------3-1----1--------------------------|
G:--0--2--------2----2-0-0-------------------|
D:-------------------------------------------|
A:-------------------------------------------|
E:-------------------------------------------|


e:-12-12-12-10-8--10-10-10-8-7--8-8-8-10-8--7-7-|
H:----------------------------------------------|
D:----------------------------------------------|
G:----------------------------------------------|
A:----------------------------------------------|
E:----------------------------------------------|

                            Here comes in the 2nd guitar!/ Itt jön be a 2. gitár!
                             V
e:-------0-----------------------------------|
H:---------3-1----1---------3-3-3--1--0------|
G:--0--2--------2----2-0-0---------------2-2-|
D:-------------------------------------------|
A:-------------------------------------------|
E:-------------------------------------------|
Tap to rate this tab
 
# A B C D E F G H I J K L M N O P Q R S T U V W X Y Z