Song name
# A B C D E F G H I J K L M N O P Q R S T U V W X Y Z

Padi - Sang Penghibur tab

Help us improve GuitareTab! Take a short survey!
ok, here's the second one.. (man, i like this song!)


after the flutes, comes the solo :

E--------------------8\7/8--13\12/13-|
B-----------10\9/10------------------|
G--10\9/10---------------------------|
D------------------------------------|
A------------------------------------|
E------------------------------------|

E--12/13\12--7/8\7------------------|
B-------------------9/10\9----------|
G--------------------------9/10\9---|
D-----------------------------------|
A-----------------------------------|
E-----------------------------------|

play it twice then :

E--12-13-12-13-12-13-7-8-7-8---------8h7h8-13h12h13-|
B----------------------------10h9h10----------------|
G---------------------------------------------------|
D---------------------------------------------------|
A---------------------------------------------------|
E---------------------------------------------------|
(play that one fast!)
Related for Sang Penghibur tab