Song name
# A B C D E F G H I J K L M N O P Q R S T U V W X Y Z

Padi - Seperti Kekasihku tab

Song    : Seperti Kekasihku
Album   : Lain Dunia

Note: This tab is the way I play the song, not personnel’s way.
-----------------------------------------------------------------------------------
Intro.
Piyu plays:
    F¬¬    G    Em   Am

E|- 1-|- 3-|- 0-|- 0-|
B|- 1-|- 0-|- 0-|- 1-|
G|- 2-|- 0-|- 0-|- 2-|
D|- 3-|- 0-|- 2-|- 2-|
A|- 3-|- 2-|- 2-|- 0-|
E|- 1-|- 3-|- 0-|----|

Engkau seperti kekasihku yang dulu.
Sungguh hadirmu menyejukkan risau jiwaku
Begitu lekatnya perasaanku kini padamu
Hingga anganku kusandarkan padamu.

Piyu continues playing as intro
So does Ari play as piyu, but in little differences and some sound effect

Ari plays:
    F¬¬        G      Em     Am

E|--- 1-|--- 3-|--- 0-|--- 0-|
B|--- 1-|--- 0-|--- 0-|--- 1-|
G|--- 2-|--- 0-|--- 0-|--- 2-|
D|--- 3-|--- 0-|--- 2-|--- 2-|
A|--- 3-|--- 2-|--- 2-|-0----|
E|-1- --|-3- --|-0- --|------|

Reff
Memang gerakmu memang langkahmu
Mengingatkan aku pada dirinya yang telah berlalu 
Inginku menyangkal inginku membantah
Betapa pesona dirimu memikat erat jiwaku.

Piyu plays:
    F¬¬    G    Dm   Am

E|- 1-|- 3-|- 5-|- 0-|
B|- 1-|- 0-|- 6-|- 1-|
G|- 2-|- 0-|- 7-|- 2-|   2x
D|- 3-|- 0-|- 7-|- 2-|
A|- 3-|- 2-|- 5-|- 0-|
E|- 1-|- 3-|- --|----|

Ari plays in distortion:
    F¬¬    G    Em   Am

E|- 1-|- 3-|- 5-|---------0-|- 1-|- 3-|- 5-|------------------|
B|- 1-|- 3-|- 6-|-------0---|- 1-|- 3-|- 6-|------------------|
G|- 2-|- 4-|- 7-|-----7-----|- 2-|- 4-|- 7-|------------------|
D|- 3-|- 5-|- 7-|---7-------|- 3-|- 5-|- 7-|---9-9-9-7-7-7~~~-|
A|- 3-|- 5-|- 5-|-0---------|- 3-|- 5-|- 5-|-0----------------|
E|- 1-|- 3-|- --|-----------|- 1-|- 3-|----|------------------|

Mungkin terbuai mungkin aku terlena
Ada keinginan yang tak tentu arah
Engkau tercipta bukan untuk bersama
Biar kunikmati kerinduan ini




Reff
Memang langkahmu memang gerakmu
Mengingatkan aku pada dirinya yang telah berlalu 
Inginku menyangkal inginku membantah
Betapa pesona dirimu memikat erat jiwaku.

All played as the first part.

Piyu’s solo:
   Dm                    G                       C
E|---------------------|-----------------------|------------|----------|
B|---------------------|-----------------------|------------|----------|
G|------5h7-5~---------|----/7-7~/-5-4~-5-4~---|------------|----------|
D|----7--------7-6h7-6-|-5~------------------5-|-5~---------|----------|
A|---------------------|-----------------------|----5h7-5-3-|-3~-/7-7~-|
E|---------------------|-----------------------|------------|----------|

   Dm                                  G
E|--------15-13-12-------------------|-------------------------------|
B|-----------------15-13-12h13p12----|----/15-15~-12-13-10-12-10-8---|
G|----/12-------------------------14-|-13--------------------------9-|
D|-----------------------------------|-------------------------------|
A|-----------------------------------|-------------------------------|
E|-----------------------------------|-------------------------------|

   C                E7sus
          1/2 
E|---------------------|
B|-10’-8~------8-10-12-|
G|--------9’-7---------|
D|---------------------|
A|---------------------|
E|---------------------|

Interlude:
Piyu plays:
   F           Am          F              Am
   |========pick it very quick!!===========|
E|-----------|-----------|--------------|----|
B|-6-13-6-13-|-5-12-5-12-|-6-13-6-13-15-|-12-|
G|-----------|-----------|--------------|----|
D|-----------|-----------|--------------|----|
A|-----------|-----------|--------------|----|
E|-----------|-----------|--------------|----|

Ari plays 2x:
   F
E|------------------------------------------------|
B|------------------------------------------------|
G|------------------------------------------------|
D|------------------------------------------------|
A|-3-3-x----3-3-x----3-3-x----3-3-x-3-3-3-3-3-3-x-|
E|-1-1-x----1-1-x----1-1-x----1-1-x-3-3-5-5-3-3-x-|

   Am
E|----------------------------------|
B|----------------------------------|
G|----------------------------------|
D|----------------------------------|
A|-7-7-x----7-7-x----7-7-x----7-7-x-|
E|-5-5-x----5-5-x----5-5-x----5-5-x-|

Reff.
Play as reff:
Maafkan aku yang slalu teringat akan dirinya
Menggugah segala yang ada dalam ingatanku
Sedapatnya aku menepis keinginan itu
Kuharap engkau dapat memaafkan aku
F G Em Am
Apa yang terpancar dari dalam hati
Tak dapat tak kubantah, tak mampu kusingkirkan
Sesungguhnya aku sangat ingin melupakan
Inginku melupakan, inginku melupakan

F G Em Am
Dikau seperti kekasihku yang dulu
Sungguh hadirmu menyejukkan risau jiwaku
Tap to rate this tab
# A B C D E F G H I J K L M N O P Q R S T U V W X Y Z