Song name
# A B C D E F G H I J K L M N O P Q R S T U V W X Y Z

Padi - Mahadewi tab

Song    : Mahadewi
Album   : Lain Dunia

God! I love this song.

Note: This tab is the way I play the song, not personnel’s way.
-----------------------------------------------------------------------------------
Intro.
The song opened by woman voice and then yoyo’s drum.

Piyu plays chord by distortion:
E|---|---|---|---|
B|---|---|---|---|
G|-2-|---|---|---|
D|-2-|-5-|-3-|-5-|   3x
A|-0-|-5-|-3-|-5-|
E|---|-3-|-1-|-3-|

E|---|---|-------|
B|---|---|-------|
G|-2-|---|-------|
D|-2-|-5-|-3-----|
A|-0-|-5-|-3-----|
E|---|-3-|-1-----|

Ari plays intro’s melody.
   Am        G        F    G    Am        G        F      G
E|-----------10---------------|-----------10-------/15-17----------------|
B|-/13-12-13----13-12-10~/-8~-|-/13-12-13----13-12--------15----------12-|
G|----------------------------|------------------------------14-12h14----|
D|----------------------------|------------------------------------------|
A|----------------------------|------------------------------------------|
E|----------------------------|------------------------------------------|

   Am        G        F    G               Am     G      F                C
                                                                        1/2
E|-----------10--------------------------|--------------------|-------12´`---|
B|-/13-12-13----13-12-10~/-8~------------|--------------------|----13--------|
G|----------------------------10-12-9----|--------------------|-12-----------|
D|------------------------------------10-|-12-/14-------------|--------------|
A|---------------------------------------|--------12-/10-12~/-|--------------|
E|---------------------------------------|--------------------|--------------|

Hamparan langit maha sempurna.
Bertahta bintang-bintang angkasa.
Namun satu bintang yang berpijar.
Teruntai turun menyapa aku.

There’s only acoustic played in C F Am G in this part.

Ada tutur kata terucap.
Ada damai yang kurasakan.
Bila sinarnya sentuh wajahku.
Kepedihanku pun terhapuskan.

Ari and piyu play distortion in this part.
E|---|---|---|---|---|---|---------|
B|---|---|---|---|---|---|---------|
G|-5-|---|-2-|---|-5-|---|-2-------|
D|-5-|-3-|-2-|-5-|-5-|-3-|-2-5-3-5-|
A|-3-|-3-|-0-|-5-|-3-|-3-|-0-5-3-5-|
E|---|-1-|---|-3-|---|-1-|---3-1-3-|

 
Intro.
Piyu plays as the first intro.

Ari plays some different notes:
   Am        G        F    G      Am        G        F      G
E|-----------10-------------15~-|-----------10-------full-13-----|
B|-/13-12-13----13-12-10~/8-----|-/13-12-13----13-12-15´-----15~-|
G|------------------------------|--------------------------------|
D|------------------------------|--------------------------------|
A|------------------------------|--------------------------------|
E|------------------------------|--------------------------------|

   Am        G        F    G    Am           G      F
E|-----------10---------------|--------------------------|
B|-/13-12-13----13-12-10~/-8~-|--------------------------|
G|----------------------------|-10-9-10-9----------------|
D|----------------------------|-----------10-12-/14------|
A|----------------------------|---------------------12~/-|
E|----------------------------|--------------------------|

Alam raya pun semua tersenyum.
Merunduk dan memuja hadirnya.
Terpukau aku menatap wajahnya.
Aku merasa mengenal dia.

There’s only acoustic played in C F Am G in this part.

Tapi ada entah dimana.
Hanya hatiku mampu menjawabnya.
Mahadewi resapkan nilainya.
Pencarianku pun usai sudah.

Ari and piyu play distortion in this part.
E|---|---|---|---|---|---|---------|---|
B|---|---|---|---|---|---|---------|---|
G|-5-|---|-2-|---|-5-|---|-2-------|-2-|
D|-5-|-3-|-2-|-5-|-5-|-3-|-2-5-3-5-|-2-|
A|-3-|-3-|-0-|-5-|-3-|-3-|-0-5-3-5-|-0-|
E|---|-1-|---|-3-|---|-1-|---3-1-3-|---|

Interlude:

Ari plays:
   Dm        Em        F           G             Am
E|---------------------------------------------|---|
B|---------------------------------------------|---|
G|-7-x-7-x-x-9-x-9-x-x-10-x-10-x-x-12-x-12-x-x-|-2-|
D|-7-x-7-x-x-9-x-9-x-x-10-x-10-x-x-12-x-12-x-x-|-2-|
A|-5-x-5-x-x-7-x-7-x-x-8--x-8--x-x-10-x-10-x-x-|-0-|
E|---------------------------------------------|---|

   Dm        Em        F           G
E|---------------------------------------------|
B|---------------------------------------------|
G|-7-x-7-x-x-9-x-9-x-x-10-x-10-x-x-12-x-12-x-x-|
D|-7-x-7-x-x-9-x-9-x-x-10-x-10-x-x-12-x-12-x-x-|
A|-5-x-5-x-x-7-x-7-x-x-8--x-8--x-x-10-x-10-x-x-|
E|---------------------------------------------|

Piyu plays:
   Dm    Em    F     G       Am
E|-------------------------|-------------------------|
B|-------------------------|-6---5-6---5-6---5-6---5-|
G|-7---7-7---7-7---7-7---7-|-------------------------|
D|---7-----7-----7-----7---|---7-----7-----7-----7---|
A|-------------------------|-------------------------|
E|-------------------------|-------------------------|

   Dm    Em    F     G
E|-------------------------|
B|-3---3-3---3-3---3-3---3-|
G|---2-----2-----2-----2---|
D|-------------------------|
A|-------------------------|
E|-------------------------|

In the recorded song, the mostly played is orchestra staff. I hear only Ari’s guitar as 
rhythm played in it (this part F and G chord).
Ari plays:
   F
E|-------------------------------------|
B|-------------------------------------|
G|-------------------------------------|
D|-3-x-3-x-x-3-x-3-x-x-3-x-3-x-x-3-3-3-|   3x
A|-3-x-3-x-x-3-x-3-x-x-3-x-3-x-x-3-3-3-|
E|-1-x-1-x-x-1-x-1-x-x-1-x-1-x-x-1-1-1-|

   G
E|---|
B|---|
G|---|
D|-5-|
A|-5-|
E|-3-|

But in live performance, Piyu always take what orchestra played in the recorded song as 
his note to play.
Here are the notes in part of F and G chord:
   F
E|-------------------------------------------------------|
B|-13-12-13-15-13-12-13-12-13-15-13-12-13-12-13-15-13-12-|
G|-------------------------------------------------------|
D|-------------------------------------------------------|
A|-------------------------------------------------------|
E|-------------------------------------------------------|

   F
E|-----------------------------------------------------------------------------|
B|-13-x-13-x-x-13-x-15-13-12-13-x-13-x-x-13-x-15-13-12-13-x-13-x-x-13-15-13-12-|
G|-----------------------------------------------------------------------------|
D|-----------------------------------------------------------------------------|
A|-----------------------------------------------------------------------------|
E|-----------------------------------------------------------------------------|

   G                                                            C
E|-------------------------------------------12---------12-13-|-15-|
B|-13---------12-13------12-13-15---12-13-15------13-15-------|----|
G|------12-14---------14--------------------------------------|----|
D|------------------------------------------------------------|----|
A|------------------------------------------------------------|----|
E|------------------------------------------------------------|----|

Oh
Ada tutur kata terucap.
Ada damai yang kurasakan.
Bila sinarnya sentuh wajahku.
Kepedihanku pun terhapuskan.

Ada satu kata terucap.
Ada damai yang kurasakan.
Bila sinarnya sentuh wajahku.
Pencarianku pun usai sudah.

Mahadewi resapkan nilainya.
Mahadewi tercipta untukku.

Ari and piyu play distortion in this part.
E|---|---|---|---|---|---|---------|
B|---|---|---|---|---|---|---------|
G|-5-|---|-2-|---|-5-|---|-2-------|
D|-5-|-3-|-2-|-5-|-5-|-3-|-2-5-3-5-|
A|-3-|-3-|-0-|-5-|-3-|-3-|-0-5-3-5-|
E|---|-1-|---|-3-|---|-1-|---3-1-3-|

Last interlude.
I translated the instrument in this part to guitar frets. So you can improve it into yours.
Here are notes:
   C                        F
E|-12~--10-12-10-12-------|--------------------------------|
B|------------------13----|-----------------------12-13-15-|
G|---------------------12-|-14~--12-14-12-14~--14----------|
D|------------------------|--------------------------------|
A|------------------------|--------------------------------|
E|------------------------|--------------------------------|

   Am                       G
E|-12~--10-12-10-12-------|----------15-13-12----------|
B|------------------12-13-|-12~~~~~~----------15-13-12-|
G|------------------------|----------------------------|
D|------------------------|----------------------------|
A|------------------------|----------------------------|
E|------------------------|----------------------------|

   C                        F
E|-12~--10-12-10-12-------|--------------------------------|
B|------------------13----|-----------------------12-13-15-|
G|---------------------12-|-14~--12-14-12-14~--14----------|
D|------------------------|--------------------------------|
A|------------------------|--------------------------------|
E|------------------------|--------------------------------|

   Am                       G
E|-12~--10-12-10-12-------|-----------|
B|------------------12-13-|-12~~~~~~~-|
G|------------------------|-----------|
D|------------------------|-----------|
A|------------------------|-----------|
E|------------------------|-----------|

   C                        F                        Am                        G
E|-12~--10-12-10-12-------|-13~--12-13-12-13-------|-15~--13-15-13-15----/19-|-17-|
B|------------------13----|------------------15----|------------------15-----|----|
G|---------------------12-|---------------------14-|-------------------------|----|
D|------------------------|------------------------|-------------------------|----|
A|------------------------|------------------------|-------------------------|----|
E|------------------------|------------------------|-------------------------|----|

   C                        F                        Am                       G
E|-12~--10-12-10-12-------|-13~--12-13-12-13-------|-15~--13-15-13-15-13-12-|-10-|
B|------------------13----|------------------15----|------------------------|----|
G|---------------------12-|---------------------14-|------------------------|----|
D|------------------------|------------------------|------------------------|----|
A|------------------------|------------------------|------------------------|----|
E|------------------------|------------------------|------------------------|----|
Tap to rate this tab
# A B C D E F G H I J K L M N O P Q R S T U V W X Y Z