Song name
# A B C D E F G H I J K L M N O P Q R S T U V W X Y Z

Pagans Mind - Enigmatic Mission tab

-------------------------------------------------------------------------------
		       Enigmatic Mission- Pagan's Mind
------------------------------------------------------------------------------
Tabbed by:IbanezDudeCK

Tuning:Standard

e|---------------------------------------------------------------------------|
B|---------------------------------------------------------------------------|
G|---------------------------------------------------------------------------|  X4
D|---------------------------------------------------------------------------|
A|-------------7--------5h7----5h7-------------7--------5h7-------5h7--------|
E|-0-----0--0-----0--0------0------0-----0--0-----0--0------0--0-------------|

e|---------------------------------------------------------------------------|
B|---------------------------------------------------------------------------|
G|---------------------------------------------------------------------------|  X2
D|---------------------------------------------------------------------------|
A|-------------7--------5h7-------5h7------------7--------5h7-------5h7------|
E|-6-----0--0-----0--0------0--0------6----0--0-----0--0------0--0-----------|

Repeat first part 2 more times
Repeat second part 2 more times
                                       X7
e|----------------------------------------|----------------------------------|
B|----------------------------------------|----------------------------------|
G|--6---x-6---4/6---x-6---4-6---7~-7~---x-|--6---x-6---4/6---x-9--8-7-6--5-4-|
D|--6---x-6---4/6---x-6---4-6---7~-7~---x-|--6---x-6---4/6---x-9--8-7-6--5-4-|
A|--4---x-4---2/4---x-4---2-4---5~-5~---x-|--4---x-4---2/4---x-7--6-5-4--3-2-|
E|----------------------------------------|----------------------------------|

| /  slide up
| \  slide down
| h  hammer-on
| p  pull-off
| ~  vibrato
| +  harmonic
| x  Mute note
Tap to rate this tab
# A B C D E F G H I J K L M N O P Q R S T U V W X Y Z