Song name
# A B C D E F G H I J K L M N O P Q R S T U V W X Y Z

Pagans Mind - Search For Life tab

----------------------------------------------------------------------------
			     SONG NAME - Band Name
----------------------------------------------------------------------------Tabbed by: Harry
Email: dead_guy2000@hotmail.com

Tuning: Standard

e|---------------------------------------------------------------------------|
B|---------3---------------0---------------0---------------------------------|
G|-------0-----0---------2----2----------2-----2-----------0-----------------|
D|-----4---------4-----2--------2------0-----------------4----4--------------|
A|---2-------------2-----------------------------------2--------2-0----------|
E|-------------------2---------------3-----------3-2-0-----------------------|

| /  slide up
| \  slide down
| h  hammer-on
| p  pull-off
| ~  vibrato
| +  harmonic
| x  Mute note
===============================================================================
Tap to rate this tab
 
# A B C D E F G H I J K L M N O P Q R S T U V W X Y Z