Song name
# A B C D E F G H I J K L M N O P Q R S T U V W X Y Z

Page And Plant - Walking Into Clarksdale tab

Help us improve GuitareTab! Take a short survey!
t. See http://www.olga.net/faq/ for more information.                     #
#-----------------------------------------------------------------------------#

Date: Fri, 14 Apr 2000 08:23:51 -0400
From: Sean Palmer 
Subject: p/page_and_plant/walking_into_clarksdale.tab

WALKING INTO CLARKSDALE
By: Jimmy Page & Robert Plant
Album: Walking Into Clarksdale
1998 - Mercury Records Ltd.
Tablature by: Sean B. Palmer
E-Mail: sean_b_palmer@yahoo.com
Web: http://www.mysterylights.com
This is my own interpretation of the song

Gibson Les Paul, Medium Overdrive, EADGBe

Intro:
e|-----------------------------------|
B|-----------------------------------|
G|------2-------2-------2-------2----|
D|----2---2---2---2---2---2---2------|
A|--0-------0-------1-------1--------|
E|-----------------------------------|

e|-----------------------------------|
B|-----------------------------------|
G|------2-------2-------2-------2----|
D|----2---2---2-------2---2---2---2--|
A|--3-------3-------1-------1--------|
E|-----------------------------------|

e|-----------------------------------|
B|-----------------------------------|
G|------2-------2-------2-------2----|
D|----2---2---2-------2---2---2---2--|
A|--0-------0-------1-------1--------|
E|-----------------------------------|

e|-----------------------------------|
B|-----------------------------------|
G|------2-------2-------2-------2----|
D|----2---2---2-------2---2---2------|
A|--3-------3-------1-------1--------|
E|-----------------------------------|

e|-----------------------------------|
B|-----------------------------------|
G|------2-------2-------2-------2----|
D|----2---2---2-------2---2---2------|
A|-----------------------------------|
E|--3-------3-------2-------2--------|

e|-----------------------------------|
B|-----------------------------------|
G|------2-------2--------------------|
D|----2---2---2----------------------|
A|-----------------------------------|
E|--1-------1------------------------|

Verse riffs:
       {===========riff 1===========}
e|--0--0--0--0--------0--0--0--------|
B|--0--2--0--0--------2--0--0--------|
G|--1--2--0--1--------2--0--1--------|
D|--2--2--0--2--------2--0--2--------|
A|--2--0--0--2--------0--0--2--------|
E|--0--0--0--0-/3--0--0--0--0-/3--0--|

Riff 1 repeats

  {====riff 2=====}
e|-----------------|
B|-----------------|
G|-----------------|
D|-----------------|
A|--------2-----2--|
E|--0--0-----0-----|

Riff 2 repeats a lot

The little burst riff:
e|--0-------------------------|
B|--1-------------------------|
G|--0-------------------------|
D|--2------0-0----0-0---------|
A|--3---/2-----/2-----/2-0----|
E|--0----------------------3--|

Solo:
The solo is over GMaj and AMaj chords

Outro:
e|----------------------------------------|
B|----------------------------------------|
G|--2--2--2--2--2--2--2--2--2--2--2--3BU--|
D|--2--2--2--2--2--2--2--2--2--2--2--3BU--|
A|--0--1--3--1--0--1--3--1--X--X--X-------|
E|--------------------------3--2--1-------|
Related for Walking Into Clarksdale tab