Song name
# A B C D E F G H I J K L M N O P Q R S T U V W X Y Z

Page And Plant - Nobodys Foult But Mine tab

Page And Plant
Nobody foult but mine
Tabbed by Gonseg



e||--3---3-3----------3--x-x-x-x--3---3-3--------------3---3-----|
B||--3---3-3----------3--x-x-x-x--3---3-3---3---0--0---3---3-----|
G||--0---0-0-------------x-x-x-x--0---0-0---2---0--0---0---0-----|
D||--0---0-0-------------x-x-x-x--0---0-0---0---3--5---0---0-----|
A||-----------1b(1/2)----x-x-x-x---------------------------1h3---|
E||--1h3-3-3----------3--x-x-x-x--1h3-3-3-1------------1h3-------|


e||--3-3---3--------------|
B||--3-3---3--------------|
G||--0-0---0--------------|
D||--0-0---3-0---0-3-5----|
A||--1--------------------|
E||----3------------------|
Tap to rate this tab
 
# A B C D E F G H I J K L M N O P Q R S T U V W X Y Z