Pageninetynine - You And Your Lumbering Body Of Death tab

|-0~------------------------------------------------------------------------|
|-1~------------------------------------------------------------------------|
|-2~------------------------------------------------------------------------|
|------8----------------8----------------8----------------8-----------------|
|------7-8--7-7-7-4-4-4-7-8--7-7-7-4-4-4-7-8--7-7-7-4-4-4-7-8--7-7-7-4-4-4--|
|------5/8--7-7-7-4-4-4-5/8--7-7-7-4-4-4-5/8--7-7-7-4-4-4-5/8--7-7-7-4-4-4--|

|---------------------------------------------------------------------------|
|---------------------------------------------------------------------------|
|--77x66--99x88--77x66--99x88--77x66--99x88--77x44--99x444------------------|
|--55x44--77x66--55x44--77x66--55x44--77x66--55x44--77x666------------------|
|----x------x------x------x------x------x------x------x---------------------|
|----0------0------0------0------0------0------0------0---------------------|

|---------------------------------------------------------------------------|
|--------------------11-11-11/12-12-12----------11-11-11/12-12-12-----------|
|------8-8-----8-8---x--x--x-/x--x--x-----------x--x--x-/x--x--x------------|
|------8-8-----8-8---9--9--9-/10-10-10----------9--9--9-/10-10-10-----------|
|--9-9-----9-9-------------------------9988-------------------------8877----|
|------------------------------------------9988-------------------99----88--|

|---------------------------------------------------------------------------|
|---------------------------------------------------------------------------|
|---------------------------------------------------------------------------|
|--8-8-8-8-8-8-888--8-8-8-8-8-8-888--8-8-8-8-8-8-888--8-8-8-8-8-8-888-------|
|--7-7-7-7-7-7-777--7-7-7-7-7-7-777--7-7-7-7-7-7-777--7-7-7-7-7-7-777-------|
|--6-6-6-6-6-6-666--6-6-6-6-6-6-666--6-6-6-6-6-6-666--6-6-6-6-6-6-666-------|

|---------------------------------------------------------------------------|
|---------------------------------------------------------------------------|
|---------------------------------------------------------------------------|
|---------------------------------------------------------------------8x----|
|---------------------------------------------------------------------7x----|
|--0-0-0-0-0-0-000--0-0-0-0-0-0-000--0-0-0-0-0-0-000--0-0-0-0-0-0-000-6x----|
Tap to rate this tab
 
# A B C D E F G H I J K L M N O P Q R S T U V W X Y Z