Song name
# A B C D E F G H I J K L M N O P Q R S T U V W X Y Z

Pagoda - Amego tab

-------------------------------------------------------------------------------
			     Amego - Pagoda
-------------------------------------------------------------------------------
Tabbed by: Kaylib Jones
Email: Kaylibkornwj@yahoo.com

Tuning: Standard

Bass/intro riff:

e|-------------------------------------------------------------------------|
B|-------------------------------------------------------------------------|
G|-------------------------------------------------------------------------|
D|-------------------------------------------------------------------------|
A|---------------------------3-3-3-3-2---------------------------3---------|
E|---0-0-0-0-3-3-3-3-2-2-2-2-----------3-0-0-0-0-3-3-3-3-2-2-2-2-----------|

Verse:

e|-------------------------------------------------------------------------|
B|-------------------------------------------------------------------------|
G|-------------------------5-5-5-5-------------------------5---------------|
D|-2-2-2-2-5-5-5-5-4-4-4-4-5-5-5-5-2-2-2-2-5-5-5-5-4-4-4-4-5---------------|
A|-2-2-2-2-5-5-5-5-4-4-4-4-3-3-3-3-2-2-2-2-5-5-5-5-4-4-4-4-3---------------|
E|-0-0-0-0-3-3-3-3-2-2-2-2---------0-0-0-0-3-3-3-3-2-2-2-2-----------------|

post-chorus/bridgy thing:

e|-------------------------------------------------------------------------|
B|-------------------------------------------------------------------------|
G|-------------------------------------------------------------------------|
D|-2-2-2-5-5-5-5-4-4-4-3-3-3-3-2-2-2-5-5-5-5-4-4-4-3-3-3-3-----------------|
A|-2-2-2-5-5-5-5-4-4-4-3-3-3-3-2-2-2-5-5-5-5-4-4-4-3-3-3-3-----------------|
E|-0-0-0-3-3-3-3-2-2-2-1-1-1-1-0-0-0-3-3-3-3-2-2-2-1-1-1-1-----------------|

Chorus:

e|-0-----------------------------------0-----------------------------------|
B|-0-----------------------------------0-----------------------------------|
G|-0-----------------------------------0-----------------------------------|
D|-2-----------------------------------2-----------------------------------|
A|-2-----------------------------------2-----------------------------------|
E|-0-----------------------------------0-----------------------------------|

And that's about, just listen to it and figure out how it goes, and remember, If there' 
thing in life that will always be true, it's that Pagoda kicks ass.

| /  slide up
| \  slide down
| h  hammer-on
| p  pull-off
| ~  vibrato
| +  harmonic
| x  Mute note
Tap to rate this tab
# A B C D E F G H I J K L M N O P Q R S T U V W X Y Z