Song name
# A B C D E F G H I J K L M N O P Q R S T U V W X Y Z

Pain In The Ass - Dare Devil Song tab

Pain in the ass,dare devil song.
Tabbed by masterreen98@aol.com.
  


Pain in the ass
Dare Devil Song

Das Stück ist ganz einfach da es nur zwei unterschiedliche Teile gibt.

Teil1: (den Rhytmus müsst ein bischen selbst raushören)
E|--------------------------|
H|--------------------------|
G|--------------------------|
D|-6-6-6--------------------|
A|-4-4-4-7-7-7-7-7-7-9-9-9--|
E|-------5-5-5-5-5-5-7-7-7--|

teil2: (s.o.)
E|-------------------|
H|-------------------|
G|-------------------|
D|-------------------|
A|-4-4-4-6-7-7-7-7-6-|
E|-2-2-2-4-5-5-5-5-4-|

So das wars, auch schon... 
:: Ultimate Guitar Archive :: 
http://www.ultimate-guitar.com 

Tap to rate this tab
 
# A B C D E F G H I J K L M N O P Q R S T U V W X Y Z